Dream Theater - Another Day Acoustic tab

Dream Theater - Another Day (acoustic)
--------------------------------------
John Petrucci/James Labrie

Tabbed by    Radu Gavrila - Bucharest,Romania
		clumsy_butterfingers@yahoo.com


Tuning is:  E Ab D# G# B Eb

Intro

---------------12h------7h----------------------------------7h-|-----------12h-------5h-------7h-------------------------7h----|-------12h-----------------5h-------7h----------------7h-------|---12h---------------------------5h-------7h-------7h----------|-0-------------------------------------5h-------7h-------------|---------------------------------------------5h----------------|
Chorus
-----------------------------|-0-----0-------0-----0-------|---2-----2-------2-----2-2---|-----3-----3-------3-------3-| x2---------------------5-------|-4-----2-----2-0---------2---|
-8--7-5-0-----------------0--------------|-----------12h-7h--------------------3-|-0--0-0-0---------------2---2----------0-|-----------12h-7h-----------9------0---|-7--7-7-3----------0-/3--------3-2--/5---|------12h--12h-7h--------10------2-----|-0--0-0-0--------1-----------------------|---12h-----12h-7h------8---------------|-0--0-0-x------0-------------------------|-0------------------2/8----------------|-x--x-x-2----0---------------------------|-----------------------------0---------|
Verse 1
-0---0---0---0---0--1-0--------|-----------1p0--0--1-0---x-x----------------------|-0---0---0---0---0--0-0--2---0-|---------0------0--0-0---0-0-------0-------0------|-0---0---0---0---0--0-0--3---3-|-------0--------3--3-3---1-1-----2-------2--------|---------1-1---1---------0---0-|-----3----------3--3-3---1-1---3-------3----------|-0-0---0---------0-0-----------|---3------------3--3-3---1-1----------------------|-------------------------2-2---|-0--------------x--x-x---0-0-2-------0------------|
Live another day,Climb a little higher, Find another reason to stay
-0---0---0---0---0--1-0--------|---------1p0--0--1-0---x-x---1-1-----------------|-0---0---0---0---0--0-0--2---0-|---------0----0--0-0---0-0---0-0-----------------|-0---0---0---0---0--0-0--3---3-|-------0------3--3-3---1-1---0-0-----------------|---------1-1---1---------0---0-|-----3--------3--3-3---1-1---3-3-----------------|-0-0---0---------0-0-----------|---3----------3--3-3---1-1---3-3-----------------|-------------------------2-2---|-0------------x--x-x---0-0---0-0-----------------|
Ashes in your hands,Mercy in your eyes If you're searching for a silent sky Chorus
-------0--------------------------------0------|---------5--------7----------7------------0----|-----5----------7----------8----------3--------|---5----------8-----8----8-----8----3----------|-5----------7----------8----------3------------|-----------------------------------------------|
You won't find it here, Look another way
-------0---------------------------------------|---------5--------7----------7----------0------|-----5----------7----------8----------2---2----|---5----------8-----8----8-----8----3-------3--|-5----------7----------8-----------------------|----------------------------------2------------|
You won't find it here, So die another day
-8--7-5-0-----------------0--------------|-----------12h-7h----------------------15--|-0--0-0-0---------------2---2----------0-|-----------12h-7h-----------9-------12-----|-7--7-7-3----------0-/3--------3-2--/5---|------12h--12h-7h--------10------14--------|-0--0-0-0--------1-----------------------|---12h-----12h-7h------8-------------------|-0--0-0-x------0-------------------------|-0------------------2/8--------------------|-x--x-x-2----0---------------------------|-----------------------------0-------------|
Verse 2
-7-5-0-0---7-5-0---0-0---------1p0-0-1-0--0-0-------------------|-0-0-7-0---0-0-7---2-0---------0---0-0-0--0-0--------0-------0--|-7-7-7-7---7-7-7---3-3---------0---3-3-3--1-1------2-------2----|-0-0-0-0---0-0-0---0-0-------3-----3-3-3--1-1----3-------3------|-0-0-0-0---0-0-0---x-x-----3-------3-3-3--1-1-------------------|-x-x-x-x---x-x-x---2-2---0---------x-x-x--0-0--2-------0--------|
The coldness of his words, The message in his silence, Face the candle to the wind
-7-5-0-0---7-5-0---0-0---------1p0-0-1-0--0-0--1-1-|-0-0-7-0---0-0-7---2-0---------0---0-1-0--0-0--1-1-|-7-7-7-7---7-7-7---3-3---------0---3-3-3--1-1--0-0-|-0-0-0-0---0-0-0---0-0-------3-----3-3-3--1-1--3-3-|-0-0-0-0---0-0-0---x-x-----3-------3-3-3--1-1--3-3-|-x-x-x-x---x-x-x---2-2---0---------x-x-x--0-0--0-0-|
This distance in my voice isn't leaving you a choice, So if you're looking for a time to run away... Chorus
-------0--------------------------------0------|---------5--------7----------7------------0----|-----5----------7----------8----------3--------|---5----------8-----8----8-----8----3----------|-5----------7----------8----------3------------|-----------------------------------------------|
You won't find it here, Look another way
-------0------------------------------------------------------|---------5--------7----------7--------------------------------|-----5----------7----------8----------------------------------|---5----------8-----8----8-----8------------------------------|-5----------7----------8-----------8/10-8p10h8\7-\5---------3-|----------------------------------------------------7\6-4\2---|
You won't find it here, So die another day Interlude
-0-0-1-0--0-0-1-0--0-0-0-0--------3--------3--|-0-0-0-0--0-0-0-0--0-0-0-0--------0--------0--|-3-3-3-3--1-1-1-1--7-7-7-7------2-2------2-2--|-3-3-3-3--1-1-1-1--8-8-8-8----3---3----3---3--|-3-3-3-3--1-1-1-1--8-8-8-8--------------------|-x-x-x-x--0-0-0-0--0-0-0-0--2--------0--------|
-0-0-1-0--0-0-1-0--0-0-0-0--------3--------3--|-0-0-0-0--0-0-0-0--0-0-0-0--------0--------0--|-3-3-3-3--1-1-1-1--7-7-7-7------2-2------2-2--|-3-3-3-3--1-1-1-1--8-8-8-8----3---3----3---3--|-3-3-3-3--1-1-1-1--8-8-8-8--------------------|-x-x-x-x--0-0-0-0--0-0-0-0--2--------0--------|
They took pictures of our dreams Ran to hide behind the stairs And said maybe when its right for you, they'll fall
-4-4-4-4--4-4-4-4--6-6-6-6--8-8--6-6--4-4--1-1--0-0--8-8-8-8--10-10-10-10--|-3-3-3-3--5-5-5-5--7-7-7-7--0-0--0-0--0-0--0-0--0-0--8-8-8-8--12-12-12-11--|-3-3-3-3--4-4-4-4--6-6-6-6--8-8--6-6--4-4--3-3--3-3--8-8-8-8--10-10-10-10--|-6-6-6-6--4-4-4-4--6-6-6-6--8-8--6-6--4-4--3-3--3-3--8-8-8-8--10-10-10-10--|-3-3-3-3--4-4-4-4--6-6-6-6--8-8--6-6--4-4--3-3--3-3--8-8-8-8--10-10-10-10--|-3-3-3-3--x-x-x-x--x-x-x-x--x-x--x-x--x-x--x-x--x-x--0-0-0-0--x--x--x--x---|
But if they don't come down Resist the need to pull them in And throw them away Better to save the mystery Than surrender to the secret Ooooo...... Solo
-8---8---8-/7-8-10-/7-----------3------------1p0--0-1-0--0--------3---------0--|-0---0---0------------7-------0-0----------0-0----0-0-0--0------0---5h7p5p0----|-7---8---7--------------7---2---2--------0--------3-3-3--1----2----------------|-8---8---8----------------3-----3------3----------3-3-3--1--3------------------|-0---0---0---------------------------3------------3-3-3--1---------------------|-x---x---x-------------------------0--------------x-x-x--0---------------------|
------------12h-7h------------------------------0-0--|--------12h-12h-7h-------------------5h-------0-0-0--|-----12h----12h-7h-----------------5h-------5---5-3--|--12h-------12h-7h---------------5h-----5/7-----7-5--|-0-----------------------------0----------------x-x--|-------------------2p0-2/4-4/6------------------x-x--|
------------12h-7h------------------------------0-0--|---------1p0--0--1-0---x-x---1-1---|--------12h-12h-7h-------------------5h-------0-0-0--|---------0----0--0-0---0-0---0-0---|-----12h----12h-7h-----------------5h-------5---5-3--|-------0------3--3-3---1-1---0-0---|--12h-------12h-7h---------------5h-----5/7-----7-5--|-----3--------3--3-3---1-1---3-3---|-0-----------------------------0----------------x-x--|---3----------3--3-3---1-1---3-3---|-------------------2p0-2/4-4/6------------------x-x--|-0------------x--x-x---0-0---0-0---|
Chorus
-0-0-0-0-0-0-0-0--0-0-0-0-0-0-0-0--------3--|-0-0-0-0-7-7-0-0--0-0-0-0-7-7-0-0--------0--|-5-5-7-7-7-7-3-3--5-5-7-7-7-7-3-3------2-2--|-5-5-8-8-8-8-3-3--5-5-8-8-8-8-3-3----3---3--|-5-5-7-7-8-8-3-3--5-5-7-7-8-8-3-3-----------|-x-x-x-x-0-0-x-x--x-x-x-x-0-0-x-x--2--------|
You wont find it here Look another way You wont find it here So die another daaay...... Chorus
-----------------------------|-0-----0-------0-----0-------|---2-----2-------2-----2-2---|-----3-----3-------3-------3-| x4---------------------5-------|-4-----2-----2-0---------2---|
Climb a little higher Climb a little, climb a little higher... uuu u u uuu u u uuu u u uuu u u uuu u u uuu u u.... Outro
-----------3--3h5p3h5p3h5p3h5p3h5p3h5p3h5p3h5--|---------0-------------------------------------|-------0---------------------------------------|-----3-----------------------------------------|---3-------------------------------------------|-0---------------------------------------------|
Tap to rate this tab
 
# A B C D E F G H I J K L M N O P Q R S T U V W X Y Z