Dream Theater - In The Name Of God tab version 2


              WRITTEN BY DREAM THEATER

              IN THE NAME OF GOD / GUITAR SOLO

              C/F/A#/D#/G/C

              SOLO BY /JOHN PETRUCCI

              TAB BY COREY C / I THOUGHT THIS SOLO WOULD
              BE GOOD FOR A DREAM THEATER FAN TO PLAY.
              TO ME, ITS ONE OF THE MOST DIFFICULT TO MASTER.
              MOST OF THE SOLO IS PLAYING BY SWEEP PICKING
              WHICH IS PRETTY HARD FOR MOST GUITAR PLAYERS.
              BUT IF YOU CAN DO SWEEP PICKING, YOU CAN
              SURE AS HECK PLAY THIS SOLO

              ANYWAY , INJOY

-----16-19---------16-19---------16-19---------16-19-----| ---17-----17-----17-----17-----17-----17-----17-----17---| -19---------16-19---------16-19---------16-19---------16-| ---------------------------------------------------------| ---------------------------------------------------------| ---------------------------------------------------------|
- -------10-------------10-12-14-12-10-----------| -----12--12---------12--------------12---------| ---13------13-----13------------------13-------| -14----------14-14----------------------14-----| ---------------X-------------------------------| -------------------------------------------12--|
-----------12-16-12----------------------| ---------12--------12--------------------| -------13------------13------------------| -----14----------------14----------------| ---14--------------------14--------------| -12------------------------12------------|
-----16-19---------16-19---------16-19---------16-19-----| ---17-----17-----17-----17-----17-----17-----17-----17---| -19---------16-19---------16-19---------16-19---------16-| ---------------------------------------------------------| ---------------------------------------------------------| ---------------------------------------------------------|
-22-19------19-22-19-16------16-19-| ------21--21-----------18--18------| --------22---------------19--------| -----------------------------------| -----------------------------------| -----------------------------------|
-16-13------13-16-13-10------10-13-| ------15--15-----------12--12------| --------16---------------13--------| -----------------------------------| -----------------------------------| -----------------------------------|
----------------------------------------------------| ----------------------------------------------------| -13-14-13-14-13-14-13-14-13-14-13-14-13-14-13-14----| ----------------------------------------------------| ----------------------------------------------------| ----------------------------------------------------|
-16-17-16-17-16-17-16-17-16-17-16-17-16-17-16-17----| ----------------------------------------------------| ----------------------------------------------------| ----------------------------------------------------| ----------------------------------------------------| ----------------------------------------------------|
IM NOT SURE ABOUT THIS PART
-16-17-19-17-16-------------------------------------| ----------------------------------------------------| ----------------13-14-16-14-13----------------------| ----------------------------------------------------| -------------------------------11-12-13-12-11-------| ----------------------------------------------12----|
---------------------------------18---19---------| ------------------17---19---20-------------------| --------16---17----------------15---16-----------| ---14-----------14---16---17---------------------| ------14---15------------------------------------| -12----------------------------------------------|
IM NOT SURE ABOUT THIS PART EITHER -------19-------------20-------------21-------------22-------| -----17--17---------18--18---------19--19---------20--20-----| ---16------16-----17------17-----18------18-----19------19---| -14----------14-15----------15-16----------16-17----------17-| -------------------------------------------------------------| -------------------------------------------------------------|
WELL, THATS THE GUITAR SOLO/ I WOULD DO THE UNISON AFTER OR PROBABLY THE WHOLE SONG BUT I DONT HAVE ENOUGH TIME / ANY PROBLEMS WITH THE TAB , JUST POST A COMMENT HOPE THIS TAB WORKS OUT FOR YOU
Tap to rate this tab
 
# A B C D E F G H I J K L M N O P Q R S T U V W X Y Z