Dream Theater - Finally Free tab

Dream theater
Sometimes there are tabbed two guitars in one line.

Intro acoustic:E||--------------2-----------|--------------0h2h0----------|B||--------3-----------3-----|-----------3--------3--------|G||-----2-----2-----------2--|--------2--------------2-----|D||--0--------------0--------|-----0--------------------0--|A||--------------------------|-----------------------------|E||--------------------------|--2--------------------------|
--------------3------------|--------------0-------------|-----------3---------------|-----3------3------3--------|--------0---------------0--|--------0h2-----------2-----|-----0---------------------|--0-------------------------|--------------------0h2----|----------------4--------4--|--3--------------3---------|----------------------------|
--------------2-----------|--------------2-----------|-----------3--------3-----|-----------3--------3-----|--------4--------------4--|--------4--------------4--|-----4--------------------|-----4--------------------|--2--------------2--------|--0--------------0--------|--------------------------|--------------------------|
--------------0-----------|---------------------0-----|-----------3--------3-----|-----------2--3------------|--------4--------------4--|--------2--------0h2----2--|-----2--------------------|-----2---------------------|--------------------------|--0------------------------|--4--------------4--------|---------------------------|
--------------2-----------|--------------0h2h0----------|--------3-----------3-----|-----------3--------3--------|-----2-----2-----------2--|--------2--------------2-----|--0--------------0--------|-----0--------------------0--|--------------------------|-----------------------------|--------------------------|--2--------------------------|
------------------------------|--------------0-----------|---------------0--------------|-----------------0--------|--------0--0h2----2--0h2h0----|--0--------0--------0-----|-----0---------------------4--|--------2--------------2--|------------------------------|-----2--------------------|--3---------------------------|--0-----------------------|
--------------------------|---------------0-----------|--------------2-----------|-----------2h3----3--2--0--|--------2-----------2-----|--------2------------------|-----2-----2-----------2--|-----2---------------------|--4--------------4--------|--0------------------------|--------------------------|---------------------------|
--------------2-----------|--------------------------|--------------------2-----|--3-----------------------|--3--------------------3--|-----4--------4--------4--|-----4-----4--------------|--------4--------4--3-----|--------4-----------------|--2--------0--------------|--2--------------2--------|--------------4-----------|
--------------------------3-|--------------------------|--2--------2--2---------2---|--------0-----4-----0-----|-----3-----------3----3-----|-----3-----3-----3-----3--|--------2-----------1-------|--------------------------|----------------------------|--------------------------|--3-----------0-------------|--4-----------------------|
--------------------------|--------------------------|--------0-----4-----0-----|--------0-----4-----0-----|-----3-----3-----3-----3--|-----3-----3-----3-----3--|--------------------------|--------------------------|--------------------------|--------------------------|--4-----------------------|--4-----------------------|
--------------------------|-------------------|------------------|--------0-----4-----0-----|-------------------|------------------|-----3-----3-----3-----3--|-------------------|------------------|--------------------------|-------------------|------------------|--------------------------|-------------------|------------------|--4-----------------------|--4----------------|------------------|
Guitar played until end:
------------------|------------------|-----------------------|------------------|------------------|--------4~--5---7---9--|------------------|------------------|----6------------------|------------------|------------------|-----------------------|------------------|------------------|-----------------------|------------------|------------------|-----------------------|
-------------------------|-----------------------|-------------------------|--4---5---4h5h4----------|--------4~--5---7---9--|--4---5---4h5h4----------|----------------6~-------|----6------------------|----------------6~-------|-------------------------|-----------------------|-------------------------|-------------------------|-----------------------|-------------------------|-------------------------|-----------------------|-------------------------|
----------------|--4---4-4--4---4-4--4--4--|-------------------------|--12-------11h9-|--4---4-4--4---4-4--4--4--|--4---4-4--x--8----8--x--|----------------|--4---4-4--4---4-4--4--4--|--3---3-3--x--8----8--x--|----------------|--6---6-6--6---6-6--6--6--|--1---1-1--x--8----8--x--|----------------|--6---6-6--6---6-6--6--6--|--------------6----6--x--|----------------|--4---4-4--4---4-4--4--4--|--3---3-3--x-------------|
--0---0-0-0-x--0---0-0--x-x-|---------------2---2-2--x--|--0---0-0-0-x--0---0-0--x-x-|--4---4-4-4-4--2---2-2--x--|--9---9-9-9-x--6---6-6--x-x-|--4---4-4-4-4--3---3-3--x--|--9---9-9-9-x--6---6-6--x-x-|--4---4-4-4-4--4---4-4--x--|--7---7-7-7-x--4---4-4--x-x-|--6---6-6-6-6--4---4-4--x--|--0---0-0-0-x---------------|---------------2---2-2--x--|
--4---4-4--4---4-4--4--4--|-------------------------|--4---4-4--4---4-4--4--4--|--4---4-4--x--8----8--x--|--4---4-4--4---4-4--4--4--|--3---3-3--x--8----8--x--|--6---6-6--6---6-6--6--6--|--1---1-1--x--8----8--x--|--6---6-6--6---6-6--6--6--|--------------6----6--x--|--4---4-4--4---4-4--4--4--|--3---3-3--x-------------|
--0---0-0-0-x--0---0-0--x-x-|---------------6---6-6--x--|----------------|--0---0-0-0-x--0---0-0--x-x-|--4---4-4-4-4--7---7-7--x--|----------------|--9---9-9-9-x--6---6-6--x-x-|--4---4-4-4-4--8---8-8--x--|----------------|--9---9-9-9-x--6---6-6--x-x-|--4---4-4-4-4--8---8-8--x--|----------------|--7---7-7-7-x--4---4-4--x-x-|--6---6-6-6-6--6---6-6--x--|----------------|--0---0-0-0-x---------------|---------------------------|----------------|
----------------|----------------|----------------|-------------------------|----------------|----------------|----------------|-------------------------|----------------|----------------|----------------|--6/8--8--x-8~-----------|----------------|----------------|----------------|--4/6--6--x-6~-----------|----------------|----------------|----------------|---------------------4h5-|----------------|----------------|----------------|-------------------------|
--------------------------|------------------------------|--------------------------|------9---------9-------------|--------------------------|------9--x------9-------------|------8----8~----8--------|------9--x------9--9-11-9-----|--6---6--6-6~----6-4h6--6-|--------------------------11/-|--------------------------|--0--------9------------------|
-----------------------2-----|-------------------------|------4-------------------2--|-------------------------|------4----------------------|--6/8--8--x-8~-----------|------4h-6h4---------4-------|--4/6--6--x-6~-----------|--6----------6/----4---------|---------------------4h5-|----------------2------------|-------------------------|
--------------------------|------------------------------|--------------------------|------9---------9-------------|--------------------------|------9--x------9-------------|------8----8~----8--------|------9--x------9--9-11-9-----|--6---6--6-6~----6-4h6--6-|--------------------------11/-|--------------------------|--0--------9------------------|
---------------------------|-----------------------|-----------------------|------4--------------------|--12---------------12--|--11---------------11--|------4---------------8----|-------8---------------|-------8---------------|------4h-6h4-------8-------|--9----------------9---|--8----------------8---|--6----------6/-6----------|-------6---------------|-------6---------------|---------------------------|-----------------------|-----------------------|
-----------------------|-------------------------|-----------------------|--9-----------------9--|--7-----------------9h11-|--12---------------12--|------4/--8--6---------|------8/--4--6-----------|-------8---------------|--6-----------------6--|--4-----------------6h8--|--9----------------9---|------2/--6--4---------|------6/--2--4-----------|-------6---------------|-----------------------|-------------------------|-----------------------|
-----------------------|-----------------------|-----------------------|--11---------------11--|--9-----------------9--|--7--------------------|-------8---------------|------4/--8--6---------|------8/--4--3/---8----|--8----------------8---|--6-----------------6--|--4--------------------|-------6---------------|------2/--6--4---------|------6/--2--1/---6----|-----------------------|-----------------------|-----------------------|
------------------------------|-----------------------------|--7-------------12---11h12h11-|------------9~---11----11b---|--8--------11-----------------|--13--------6~---------------|------------------------------|-----------------------------|--9---------------------------|--7--------------------------|------------------------------|-----------------------------|
----------------------|--4-----------------------|--7~------------------|-----4-4--2--0~-------4h5-|--6~-------------8h11-|--4----3-------1~---------|----------------------|--------------------------|--6~------------------|--------------------------|----------------------|--4-----------------------|
----------------------------11h12h14-|--16--------16~---18----19----|--7-------------12-11h12h14----------|------------------------------|--8--------11------------------------|--8---------6~----------------|-------------------------------------|------------------------------|-------------------------------------|--7---------------------------|--2----------------------------------|------------------------------|
--19r-----19--19~-------|--18--------16r-----16--|--16----------------|------------------------|------------------------|--------------------|--6-----------4~--------|--3---------------------|--1-----------------|------------------------|--8---------------------|--------------------|--6---------------------|--6---------------------|--6-----------------|------------------------|------------3-----------|--4-----------------|
-------------------|-------------------|-------------------|-------------------|-------------------|-------------------|-------------------|--6----------------|--2----------------|-------------------|--6----------------|--2----------------|--4----------------|--4----------------|--0----------------|--2----------------|--4----------------|-------------------|
------------------------|------------------------|------------------------|------------------------|------------------------|------------------------|------------------------|------------------------|--6---------------------|------------------------|------------------------|--6---------------------|--6----7--6~------7--6--|--4----7--6~------7--6--|--4----7--6~---4--7--6--|--4------------4--------|--2------------2--------|--4---------------------|
------------------------|------------------------|------------------------|------------------------|------------------------|------------------------|--2---------------------|-------9--8~------9--8--|-------9--8~------9--8--|--2---------------------|--6------------6--------|--4------------4--------|--0----7--6~---0--7--6--|--6----7--6~------7--6--|--4----7--6~------7--6--|------------------------|--4------------4--------|--2------------2--------|
------------------------|------------------------|------------------------|------------------------|------------------------|------------------------|--6----9--8~---6--9--8--|--2----9--8~------9--8--|-------9--8~------9--8--|--6---------------------|--2------------7--------|--6----6--4~---6--6--4--|--4----7--6~---4--7--6--|--0----7--6~---0--7--6--|--6----7--6~---6--7--6--|--4---------------------|------------------------|--4------------4--------|
------------------------|------------------------|-------------------------|------------------------|------------------------|-------------7--9--------|-------9--8~------9--8--|--6----9--8~---6--9--8--|--2----9--8-----4--8-----|--4----6--4~---4--6--4--|--6----6--4~------6--4--|--2----6--4--4--6--4--9--|--4----7--6~---4--7--6--|--4----7--6~---4--7--6--|--0----7--6--------6--6--|--2------------2--------|--4---------------------|----------------------7--|
--------------------|--------------------|--------------------|--------------------|--------------------|--------------------|--6--------4--------|-----------2--------|--6--------4--------|--6--------4--------|-----------2--------|--6--------4--------|--4--------2--------|-----------0--------|--4--------2--------|--------------------|--4~----------------|--------------------|
--------------------|--------------------|--------------------|--------------------|--------------------|--------------------|-----------2--------|--6--------4--------|-----------2--------|-----------2--------|--6--------4--------|-----------2--------|-----------0--------|--4--------2--------|-----------0--------|--4~----------------|--------------------|--4~----------------|
--------------------|----------------------------------------|--------------------|----------------------------------------|--6--------4--------|--2-------------------------------4h6h8-|--6--------4--------|--2-------------------------4h6h7-------|--4--------2--------|--0-------------------4h6h7-------------|--------------------|-----------4----4h5h7-------------------|
----------------------|----------------------|----------------------|--5~-----7---7r----7--|--4~------------------|----------------------|----------------------|---------4--4~--------|--4~-----6------8--6~-|----------------------|-------------------6--|----------------------|----------------------|----------------------|----------------------|----------------------|----------------------|----------------------|
----------------------------------------------|------------------16----|-------------------------------------16-17-19-|--17~-----19------------|-------------------------------16-18----------|------------------------|-------------------------16-18----------------|------------------------|----------------16-18-19----------------------|------------------------|----------16-17-------------------------------|------------------------|
--19--------------16-19-|--19b---------19b---19-19r17-|--21~-------------21-23-|------------------------|-----------------------------|------------------------|------------------------|-----------------------------|------------------------|------------------------|-----------------------------|------------------------|------------------------|-----------------------------|------------------------|------------------------|-----------------------------|------------------------|
--23~-----23r--23h21--24~-----24r-----|--------------------------------------|--------------------------------------|--------------------------------------|--------------------------------------|--------------------------------------|
--24---24-----------------------------------|--------------------------------|--------------------------------------------|--------------------------------|--------------------------------------------|--------------------------------|--------------------------------------------|--------------------------------|--------------------------------------------|--------------------------------|--0----0---0-12---12--12-0---0--0-2-4--5--7-|--9------8------7------6-5---4--|
---------------------------------|------------------------------|---------------------------------|------------------------------|---------------------------------|------------------------------|---------------------------------|------------------------------|---------------------------------|------------------------------|--7------6------5------2-4--5--7-|--9------8------7------6------|
-------------------------------------------------|---------------------9--10------------------9-10-|------------8-9--11------------------8-9-11------|-----7-9-11-------------------7-9-11-------------|---7---------------------------------------------|-------------------------------------------------|
----------------------------9-11-------------------------9-11-12-11-12-14-|--12~---------------9-10-12--------------9-10-12-9-10-12------------------|-------------8-9-11---------------8-9-11----------------------------------|--------9h11--------------------------------------------------------------|--------------------------------------------------------------------------|--------------------------------------------------------------------------|
--16------20-----21-|--21/16-16-12-12----------------------------------|--------------------|-----------------14-14----------------------------|--------------------|-----------------------13-13----------------------|--------------------|-----------------------------14-14-11-11----------|--------------------|-----------------------------------------11-11----|--------------------|-----------------------------------------------12-|
----------------------|------------------|--4---4-4--4---4-4--4--4--|----------------------|------------------|--4---4-4--4---4-4--4--4--|----------------------|------------------|--4---4-4--4---4-4--4--4--|----------------------|------------------|--6---6-6--6---6-6--6--6--|--13~-------12~-------|------------------|--6---6-6--6---6-6--6--6--|----------------------|------------------|--4---4-4--4---4-4--4--4--|
-------------------------|--0---0-0-0-x--0---0-0--x-x-|--4---4-4--x--8----8--x--|--0---0-0-0-x--0---0-0--x-x-|--3---3-3--x--8----8--x--|--9---9-9-9-x--6---6-6--x-x-|--1---1-1--x--8----8--x--|--9---9-9-9-x--6---6-6--x-x-|--------------6----6--x--|--7---7-7-7-x--4---4-4--x-x-|--3---3-3--x-------------|--0---0-0-0-x---------------|
---------------2---2-2--x--|--4---4-4--4---4-4--4--4--|--4---4-4-4-4--2---2-2--x--|--4---4-4--4---4-4--4--4--|--4---4-4-4-4--3---3-3--x--|--4---4-4--4---4-4--4--4--|--4---4-4-4-4--4---4-4--x--|--6---6-6--6---6-6--6--6--|--6---6-6-6-6--4---4-4--x--|--6---6-6--6---6-6--6--6--|---------------2---2-2--x--|--4---4-4--4---4-4--4--4--|
-------------------------|--0---0-0-0-x--0---0-0--x-x-|--4---4-4--x--8----8--x--|--0---0-0-0-x--0---0-0--x-x-|--3---3-3--x--8----8--x--|--9---9-9-9-x--6---6-6--x-x-|--1---1-1--x--8----8--x--|--9---9-9-9-x--6---6-6--x-x-|--------------6----6--x--|--7---7-7-7-x--4---4-4--x-x-|--3---3-3--x-------------|--0---0-0-0-x---------------|
---------------6---6-6--x--|-------------------|-----------------------|--4---4-4-4-4--7---7-7--x--|-------------------|-----------------------|--4---4-4-4-4--8---8-8--x--|-------------------|-----------------------|--4---4-4-4-4--8---8-8--x--|--6----------------|-----------------------|--6---6-6-6-6--6---6-6--x--|--6----------------|-------8--6~-----4--6--|---------------------------|--4----------------|--3~-------------------|
---------------------|---------------------|-------------------|---------------------|---------------------|-------------------|--9---------6--------|--4---------3--------|-------------------|--9---------6--------|--4---------4--------|--6----------------|--7------6--4--------|--6---------4--------|--6----------------|---------------------|---------0--2--------|--4----------------|
-----------------------|---------------------|--------------------|-----------------------|---------------------|--------------------|-----------------------|--9---------6--------|--4--------8--------|-----------------------|--9---------6--------|--4--------8--------|-------8--6~-----4--6--|--7------6--4--------|--6--------6--------|--3~-------------------|---------------------|--------------------|
-----------------0----|------------|--------------------|-------------------|-----------------0----|------------|--------------------|-------------------|--9--------------6----|--4---------|--3------3----------|--3----------------|--9--------------6----|--4---------|--4------4----------|--4----------------|--7------7--4---------|--6---------|--4------4----------|--4----------------|----------------------|---------0--|--2------2----------|--2----------------|
---------------------|-----------------------|---------------------|---------------------|-----------------------|---------------------|---------------------|-----------------------|---------------------|---------------------|-----------------------|------------------8--|---------------------|------------4~---------|-----------2------6--|--4~-------6~---7~---|--6~-----7---------7-6-|--4~-------0---------|
---------------------|---------------------|-----------------------|---------------------|---------------------|-----------------------|--6------------------|---------------------|-----------------------|--6------------------|---------------------|-----------------------|--4------------------|---------------------|------------4~---------|-----------7~---6~---|--4~-------6~---7~---|--6~-----7---------7-6-|
---------------------|---------------------|---------------------|---------------------|---------------------|---------------------|---------------------|--6------------------|---------------------|------------------8--|--6------------------|---------------------|-----------2------6--|--4------------------|---------------------|--4~-------0---------|-----------7~---6~---|--4~-------6~---7~---|
-----------------------|---------------------|--------------------|-----------------------|---------------------|--------------------|-----------------------|---------------------|--6--------8--------|-----------------------|------------------8--|--6--------8--------|-----------------------|-----------2------6--|--4--------6--------|--6~-----4--3~-----4-6-|--4~-------0---------|--------------------|
---------------------|-----------------------|---------------------|---------------------|-----------------------|---------------------|---------------------|------------6~---------|---------------------|--6~-------8~---9~---|--8~-----9---------9-8-|--6~--------------8--|---------------------|------------4~---------|-----------2------6--|--4~-------6~---7~---|--6~-----7---------7-6-|--4~-------0---------|
---------------------|---------------------|-----------------------|---------------------|---------------------|-----------------------|--6------------------|---------------------|------------6~---------|--6--------9~---8~---|--6~-------8~---9~---|--8~-----9---------9-8-|--4------------------|---------------------|------------4~---------|-----------7~---6~---|--4~-------6~---7~---|--6~-----7---------7-6-|
---------------------|---------------------|---------------------|---------------------|---------------------|---------------------|---------------------|--6------------------|---------------------|--6~--------------8--|--6--------9~---8~---|--6~-------8~---9~---|-----------2------6--|--4------------------|---------------------|--4~-------0---------|-----------7~---6~---|--4~-------6~---7~---|
-----------------------|---------------------|--------------------|-----------------------|---------------------|--------------------|-----------------------|---------------------|--6--------8--------|--8~-----6--5~-----6-8-|--6~--------------8--|--6--------8--------|-----------------------|-----------2------6--|--4--------6--------|--6~-----4--3~-----4-6-|--4~-------0---------|--------------------|
---------------------|-----------------------|---------------------|----------------4~---|---------4--5~-----4---|------------------7--|--4~-------6~--------|--6~--------6~-------6-|--4~-----------------|--6~-------8~---9~---|--8~-----9---------9-8-|--6~-------6------8--|---------------------|------------4~---------|-----------2------6--|--4~-------6~---7~---|--6~-----7---------7-6-|--4~-------0---------|
---------------------|---------------------|-----------------------|--5--------4~--------|----------------4~---|---------4--5~-----4---|--6-------------6~---|--4~-------6~--------|--6~--------6~-------6-|--6--------9~---8~---|--6~-------8~---9~---|--8~-----9---------9-8-|--4------------------|---------------------|------------4~---------|-----------7~---6~---|--4~-------6~---7~---|--6~-----7---------7-6-|
---------------------|---------------------|---------------------|---------------------|---------------------|----------------4~---|--4~-------3---------|--6--------3~--------|--4~-------6~--------|--6~--------------8--|--6--------9~---8~---|--6~-------8~---9~---|-----------2------6--|--4------------------|---------------------|--4~-------0---------|-----------7~---6~---|--4~-------6~---7~---|
-----------------------|---------------------|--------------------|---------4--5~-----4---|------------------7--|--5--------4--------|--6~-----------------6-|--4~-----------------|--6--------8--------|--8~-----6--5~-----6-8-|--6~-------6------8--|--6--------8--------|-----------------------|-----------2------6--|--4--------6--------|--6~-----4--3~-----4-6-|--4~-------0---------|--------------------|
---------------------|-----------------------|---------------------|----------------4~---|-----------------------|------------------7--|--4~-------6~--------|--6~-----4--3~-----4-6-|--4~-----------------|--6~-------8~---9~---|--8~-----6--5~-----6-8-|--6~-------6------8--|---------------------|-----------------------|-----------2------6--|--4~-------6~---7~---|--6~-----4--3~-----4-6-|--4~-------0---------|
--------------------|------------------------|----------------------------|--5--------8--------|------------------16~---|----------16--17~-----16----|--6--------8--------|--16~-------18~---------|--18~---------6~---------18-|--6--------8--------|--6~--------8~----9~----|--8~------9-----------9--8--|--4--------6--------|------------------------|--------------4~------------|--------------------|--4~--------6~----7~----|--6~------7-----------7--6--|
--------------------|------------------------|----------------------------|--------------------|------------------16~---|----------16--17~-----16----|--16~---------------|--16~-------18~---------|--18~---------6~---------18-|--6~----------------|--6~--------8~----9~----|--8~------9-----------9--8--|--------------------|------------------------|--------------4~------------|--------------------|------------------------|----------------------------|
--------------------|------------------------|----------------------------|--------------------|------------------16~---|----------16--17~-----16----|--16~---------------|--16~-------18~---------|--18~--------------------18-|--6~----------------|------------------------|----------------------------|--------------------|------------------------|----------------------------|--------------------|------------------------|----------------------------|
--------------------|----------||--------------------|----------||--16~---------------|----------||--------------------|----------||--------------------|----------||--------------------|----------||
Tap to rate this tab
 
# A B C D E F G H I J K L M N O P Q R S T U V W X Y Z