Dream Theater - Crimson Sunrise tab

crimson sunrise
By: dream theater
tabbed by silkmoth

i included the time sigs this time cos there was alot. Gtr I|-----------------|-----------------------|-----------------|------------------||-------1-------0-|-----------------------|-----------------|------------------||-----2-------2---|-----0-2-----0-(0)-1-2-|---2-0-----0-0---|-----2-0----------||---2-------2-----|---2-------2-----------|-0-----0---------|---2---------0----||-----------------|-----------------------|---------3-----3-|-0---------2------||-0-------0-------|-0-------0-------------|-----------------|---------3-----3--|
|-----------------|-----------------------|-----------------|-----------------||-------1-------0-|-----------------------|-----------------|-----------------||-----2-------2---|-----0-2-----0-(0)-1-2-|---2-0-----0-0---|---0-2-----------||---2-------2-----|---2-------2-----------|-0-----0---------|-------------3---||-----------------|-----------------------|---------3-----3-|-0-----0---3-----||-0-------0-------|-0-------0-------------|-----------------|---------1-----1-|
|-----------------|-----------------------|-----------------|-----------------||-------1-------0-|-----------------------|-----------------|-----------------||-----2-------2---|-----0-2-----0-(0)-1-2-|---2-0-----0-0---|-----2-0---------||---2-------2-----|---2-------2-----------|-0-----0---------|---2---------0---||-----------------|-----------------------|---------3-----3-|-0---------2-----||-0-------0-------|-0-------0-------------|-----------------|---------3-----3-|
|-----------------|-------------------------||-------1-------0-|-------------------------||-----2-------2---|-----0-2-----0-(0)-2-(2)-||---2-------2-----|---2-------2-------------||-----------------|-------------------------||-0-------0-------|-0-------0---------------|
|-----------------|-----------------||-----------------|-----------------||---2-0-----0-0---|---0-2-----------||-0-----0---------|-------------3---||---------3-----3-|-0-----0---3-----||-----------------|---------1-----1-|
|---0-2-5-7---0---|-----0-2-5---0---|-----0-----0-2-3-|-----------------||-----------7---0-|---1-------------|---3-------------|-----0-------3---||-----------------|-----------5-----|-----------------|-----------0---0-||-----------------|-----------------|-0-----0-2-----2-|---2-------------||-2---------------|-3---------3---3-|-----------------|-0-----0-3-------||-----------7-----|-----------------|-----------------|-----------------|
|---0-2-5-7---0---|-----0-2-5---0---|-----0-----0-2-3-|-----------------||-----------7---0-|---1-------------|---3-------------|-----0-------3---||-----------------|-----------5-----|-----------------|-----------0---0-||-----------------|-----------------|-0-----0-2-----2-|---2-------------||-2---------------|-3---------3---3-|-----------------|-0-----0-3-------||-----------7-----|-----------------|-----------------|-----------------|
7/4|-----------------------------------|-----------------------------------||---------0---1-------------3---1-0-|---------0---1---------------------||-----0-----------0-(0)-1-2---------|-----0---------------0---------2---||---2---2---2---2-------------2-----|---2---2---2---2---0-----------2---||-----------------------------------|-------------------------------0---||-0---------------------------------|-0---------------3-----3-(3)-4-----|
|-----------------------------------|----------------------------------||---------0---1-------------3---1-0-|---------0---1--------------------||-----0-----------0-(0)-1-2---------|-----0---------------0---------2--||---2---2---2---2-------------2-----|---2---2---2---2---0-----------2--||-----------------------------------|-------------------------------0--||-0---------------------------------|-0---------------3-----3-(3)-4----|
Gtr III|---7-8---5-7-----5---------0-|---7-8---5-7-----5-------6---||---------------8-----7-8-----|---------------8-----7-8-----||-----------------------------|---------------------------8-||-----------------------------|-----------------------------||-7-----7-----7-----7-----7---|-7-----7-----7-----7---------||-----------------------------|-----------------------------|
4/4|---7-8---5-7-----5---------0-|---7-8---5-7-----5-------6---|-----------------||---------------8-----7-8-----|---------------8-----7-8-----|-----------------||-----------------------------|---------------------------8-|---4-5---2-4-----||-----------------------------|-----------------------------|-2-4-5-2-2-4-2-5-||-7-----7-----7-----7-----7---|-7-----7-----7-----7---------|-2-2-3-2-0-2-2-5-||-----------------------------|-----------------------------|-0-----0-----0-3-|
7/4 4/4|----------------|----------------------------|-----------------||----------------|----------------------------|-----------------||-2--------------|---4-5---2-4-----2-------3--|---4-5---2-4-----||-2-2-4-5-2--5---|-2-4-5-2-2-4-2-5-2-2-4-5-3--|-2-4-5-2-2-4-2-5-||-0-2-4-5-2--5---|-2-2-3-2-0-2-2-5-0-2-4-5-1--|-2-2-3-2-0-2-2-5-||---0-2-3-0--3---|-0-----0-----0-3---0-2-3----|-0-----0-----0-3-|
7/4|----------------|----------------------------|------------------------------||----------------|----------------------------|------------------------------||-2--------------|---4-5---2-4-----2-------3--|---4-5---2-4-----2------------||-2-2-4-5-2--5---|-2-4-5-2-2-4-2-5-2-2-4-5-3--|-2-4-5-2-2-4-2-5-2-2-4-5-2-5--||-0-2-4-5-2--5---|-2-2-3-2-0-2-2-5-0-2-4-5-1--|-2-2-3-2-0-2-2-5-0-2-4-5-2-5--||---0-2-3-0--3---|-0-----0-----0-3---0-2-3----|-0-----0-----0-3---0-2-3-0-3--|
|----------------------------|-----------------------------||----------------------------|-----------------------------||---4-5---2-4-----2-------3--|---4-5---2-4-----2-----------||-2-4-5-2-2-4-2-5-2-2-4-5-3--|-2-4-5-2-2-4-2-5-2-2-4-5-2-5-||-2-2-3-2-0-2-2-5-0-2-4-5-1--|-2-2-3-2-0-2-2-5-0-2-4-5-2-5-||-0-----0-----0-3---0-2-3----|-0-----0-----0-3---0-2-3-0-3-|
|----------------------------|-----------------||----------------------------|-----------------||---4-5---2-4-----2-------3--|-----------------||-2-4-5-2-2-4-2-5-2-2-4-5-3--|-2-2-------------||-2-2-3-2-0-2-2-5-0-2-4-5-1--|-2-2-------------||-0-----0-----0-3---0-2-3----|-0-0-------------|
|-----------------|-0----7---5---10--15--||-----------------|----------------------||-----------------|----------------------||-2-2-------------|----------------------||-2-2-------------|----------------------||-0-0-------------|----------------------|
|-0----------------------|-0--------------10--15--||------12---10-----------|------12---10-----------||----------------12------|------------------------||--------------------12--|------------------------||------------------------|------------------------||------------------------|------------------------|
|-------------------------|----7-------------------||-------12----------------|-----------10------(10)-||------------14---12------|-9-----9----------------||-14------------------12--|------------------------||-------------------------|------------------------||-------------------------|------------------------|
|----5------5------(5)-|----0--0---5------(5)-||-------5--------------|----------------------||-7--------------------|-2--------------------||----------------------|----------------------||----------------------|----------------------||----------------------|----------------------|
|----3--8---10------(10)-|-------------------------||------------------------|-------------------------||-5----------------------|-------------------------||------------------------|-------------------5-----||------------------------|-------------5--7----7-5-||------------------------|-0------(0)--------------|
|-------------------------|---------------------------||-------------------------|---------------------------||-------------------------|---------------------------||-------------------------|-------------------5-7-5---||-------------5--7--------|-------------5--7--------7-||-0------(0)--------0-2-3-|-0------(0)----------------|
4/4 9/8|-------------------------|-----------------|--------------------||-------------------------|-----------------|--------------------||-------------------------|-----------------|--------------------||-------------0--2--------|---------0-----2-|--------------------||-------------------------|-----4-----4-----|---4-0-------0-1----||-0------(0)--------0-2-3-|-2-2---2-----2---|-2-----0-2-3-----3--|
4/4 9/8 4/4 9/8|-----------------|-------------------|---------------0-|-------------------||-----------------|---2---------------|-----2---3-2-----|---2---------------||-----------------|-2---2-----0-2-3-0-|-----------------|-----2-----0-2-3-0-||---------0-----0-|-------2-4---------|-4-4---4-----4---|-4-----2-4---------||-----4-----4-----|-------------------|-----------------|-------------------||-2-2---2-----2---|-------------------|-----------------|-------------------|
4/4 9/8 4/4 9/8|---------0-----1-|---0---------------|---------0-------|---0---------------||-----3-----3-----|-----1---------1---|-----3-----3-----|---------------1---||-2-2---2-----2---|-2---------0-2---3-|-2-2---2-----2---|-2---------0-2---3-||-----------------|-------2-3---------|---------------3-|-------2-3---------||-----------------|-------------------|-----------------|-----3-------------||-----------------|-------------------|-----------------|-------------------|
4/4 9/8|-------------------|-----------------|-----------------|-------------------||-------------------|-----------------|-----------------|-------------------||-------------------|-----------------|-----------------|-------------------||-----0---2-0---3---|-2---------------|---------0-----2-|-------------------||-0-0---0-----0---0-|---3-------0-1---|-----4-----4-----|---4-0-------0-1---||-------------------|-----0-1-3-----3-|-2-2---2-----2---|-2-----0-2-3-----3-|
4/4 9/8 4/4 9/8|-----------------|-------------------|---------------0-|-------------------||-----------------|---2---------------|-----2---3-2-----|---2---------------||-----------------|-2---2-----0-2-3-0-|-----------------|-----2-----0-2-3-0-||---------0-----0-|-------2-4---------|-4-4---4-----4---|-4-----2-4---------||-----4-----4-----|-------------------|-----------------|-------------------||-2-2---2-----2---|-------------------|-----------------|-------------------|
4/4 9/8 4/4 9/8|---------0-----1-|---0---------------|---------0-------|---0---------------||-----3-----3-----|-----1---------1---|-----3-----3-----|---------------1---||-2-2---2-----2---|-2---------0-2---3-|-2-2---2-----2---|-2---------0-2---3-||-----------------|-------2-3---------|---------------3-|-------2-3---------||-----------------|-------------------|-----------------|-----3-------------||-----------------|-------------------|-----------------|-------------------|
4/4 9/8 4/4 9/8 Gtr II|-----------------|-------------------|--------------|-----------------||-----------------|-------------------|--------------|-----------------||-----------------|-------------------|--------------|---------0-2-3-0-||-----------------|-------------------|--------------|-----2-4---------||-----------------|-------------------|--------------|-----------------||-----------------|-------------------|--------------|-----------------|
|
| Gtr III|-----------------|-------------------|--------------|-----------------||-----------------|-------------------|--------------|-----------------||-----------------|-------------------|--------------|--2--------------||-----0---2-0---3-|---2---------------|-4------(4)-5-|--2--------------||-0-0---0-----0---|-0---3-------0-1---|-4------(4)-5-|--0--------------||-----------------|-------0-1-3-----3-|-2------(2)-3-|-----------------|
4/4 9/8 4/4 9/8|--------------|-------------------|--------------|-----------------||--------------|-------------------|--------------|-----------------||--------------|---------0-2--3--0-|--------------|---------0-2-3-0-||--------------|-----2-4-----------|--------------|-----2-4---------||--------------|-------------------|--------------|-----------------||--------------|-------------------|--------------|-----------------|
|
|--------------|-------------------|--------------|-----------------||--------------|-------------------|--------------|-----------------||--------------|-------------------|--------------|--2--------------||-4------(4)-0-|--2----------(2)---|-4------(4)-5-|--2--------------||-4------(4)-0-|--2----------(2)---|-4------(4)-5-|--0--------------||--------------|-------------------|-2------(2)-3-|-----------------|
21/8|-----------1-4-3--7-10-9--13-16-15-----||----0-3-2------------------------------||-0-------------------------------------||---------------------------------------||---------------------------------------||---------------------------------------|
4/4|-16-13----------------------------------||-------15-14-12-------------------------||----------------13-12-10----------------||-------------------------12-11-9--------||---------------------------------10-9---||------------------------------------7---|
|----------------|--------------|-------------------|-------------||----------------|--------------|-------------------|-------------||----------------|--------------|-------------------|-4-----2--3--||----------------|-9------7--8--|-9-----------5---5-|-4--5--2--2--||---9-9-9----9-9-|-9--10--7--7--|-9--10--4-4----3---|-2--2--0-----||---7-7-7----7-7-|-7---7--5-----|-7---7-------------|-------------|
|------------------|-------------|------------------|-------------||------------------|-------------|------------------|-------------||-4----------------|-4-----2--3--|-4----------------|-4-----2--3--||-4--5-------5---5-|-4--5--2--2--|-4--5-------5---5-|-4--5--2--2--||-2--2--4-4----3---|-2--2--0-----|-2--2--4-4----3---|-2--2--0-----||------------------|-------------|------------------|-------------|
|-------------0---0-2-7-|-0----(0)-0-5-7-|-(7)---5-7-5--(5)-3-5-||---------0-1---3-------|----------------|----------------------||-4-----2---------------|----------------|----------------------||-4--5------------------|----------------|----------------------||-2--2------------------|----------------|----------------------||-----------------------|----------------|----------------------|
|-(5)-3-2-0-----0-|-(0)--------------||-------------3---|-----3-1-0----(0)-||-----------------|------------------||-----------------|------------------||-----------------|------------------||-----------------|------------------|
~~~~~~~~~~~~~~~~~~~~~~~|-0---0-5-0-17b21===|=(17)----(17)r-19-17-15-17--||-------------------|----------------------------||-------------------|----------------------------||-------------------|----------------------------||-------------------|----------------------------||-------------------|----------------------------|
|-(17)-15-14-12---------|-----------------------||-----------------12-13-|-(13)-12-10------------||-----------------------|------------10----(10)-||-----------------------|-----------------------||-----------------------|-----------------------||-----------------------|-----------------------|
15/4 Gtr I|-------0-5-0-------3---5-3-------0-------2--------------------||---0-3-----------3---------3-----------0---0-----0-------3----||---------------0---------------2---2-------------------0---0--||-----------------------------0-------2---------2---2----------||-2-----------3-------3-----------------------0-------3--------||--------------------------------------------------------------|
|-------0-5-0-------3---5-3-------0-------2-------------------||---0-3-----------3---------3-----------0---0-----0-------3---||---------------0---------------2---2-------------------0---0-||-----------------------------0-------2---------2---2---------||-2-----------3-------3-----------------------0-------3-------||-------------------------------------------------------------|
4/4 Gtr III|----------|------------|------------|-----*||----------|------------|------------|-----*||-4--------|-(4)--------|-(4)--------|-----*||-4--------|-(4)--------|-(4)--------|-----*||-2--------|-(2)--------|-(2)--------|-----*||----------|------------|------------|-----*|
Tap to rate this tab
 
# A B C D E F G H I J K L M N O P Q R S T U V W X Y Z