Dream Theater – Hells Kitchen tab

Hells kitchen
By DT
Tabbed by : bighabit69@iamwasted.com (silkmoth)

: ahh theres tons of time changes in this. Its a long one. Sum parts where
pretty hard to hear, but im pretty sure its accurate. Any errors please let me know
and i will try and fix them::

  
Eletric piano arranged for GT|-----7-------7---|-----10-------10---|-----9-------9--|----------------||---0---0---0---0-|-7--------7--------|----------------|-11---9-(9)-----||-----------------|---7----7---7----7-|---6---6---6----|-------------7--||-----------------|-------------------|----------------|--8---6-(6)-----||-7-------7-------|-------------------|-7-------7------|-------------5--||-----------------|-------------------|----------------|----------------|
|
| Gtr I|-----------------|-------------------|----------------|----------------||-----------------|-------------------|----------------|-11---9-(9)-----||-----------------|-------------------|----------------|-------------7--||-----------------|-------------------|----------------|--8---6-(6)-----||-----------------|-------------------|----------------|-------------5--||-----------------|-------------------|----------------|----------------|
|-----7-------7---|-------10-------10---|-------8-------8---|-----6-----------|||---0---0---0---0-|--7---------7--------|-------------------|-------------7---|||-----------------|-----7----7---7----7-|-----5---5---5---5-|-----------6-----|||-----------------|---------------------|-------------------|---8---8---------|||-7-------7-------|---------------------|--7--------7-------|-7-------7-------|||-----------------|---------------------|-------------------|-----------------||
|
|-----------------|---------------------|-------------------|-----------------|||-----------------|---------------------|-------------------|-----------------|||-9---------------|-(9)-----------------|-(9)---------------|-----------------|||-----------------|---------------------|-------------------|-8-------4-------|||-7---------------|-(7)-----------------|-(7)---------------|-----------------|||-----------------|---------------------|-------------------|-----------------|||-----------------|-------------------||-----------------|-------------------||-3-------4-------|--3--------4-------||-----5-------5---|-------6-------6---||-----------------|-------------------||-----------------|-------------------|
|
|-0---------------|-(0)---------------||-0---------------|-(0)---------------||-3---------------|-(3)---------------||-2---------------|-(2)---------------||-----------------|-------------------||-----------------|-------------------|
|
| Gtr VI|-----------------|-------------------||-----------------|-------------------||-----------------|-------------------||-----------------|-------------------||-----------------|-------------------||-----------------|-------------------|
|--------------4------|---------------------4-------||------------5----5---|-------------------5---------||-3-------4---------4-|--3------------4--------4----||-----6---------------|----------5----------------6-||---------------------|-----------------------------||---------------------|-----------------------------|
|
|-0-------------------|-(0)-------------------------||-0-------------------|-(0)-------------------------||-3-------------------|-(3)-------------------------||-2-------------------|-(2)-------------------------||---------------------|-----------------------------||---------------------|-----------------------------|
|
|----------------24---|-----------------------24----||---------------------|-24--24--24---24--24------24-||---------------------|-----------------------------||---------------------|-----------------------------||---------------------|-----------------------------||---------------------|-----------------------------|
Gtr II|-------------------|-------------------||------0--------0---|------0--------0---||----2--------2-----|----2--------2-----||--2--------2-------|--0--------0-------||-------------------|-------------------||-------------------|-------------------|
|-----------------------|-----------------------||------0----------0-----|------0----------0-----||----2---2------2---2---|----2---2------2---2---||--2-------2--2-------2-|--2-------2--2-------2-||-----------------------|-----------------------||-----------------------|-----------------------|
|-------------------|-------------------||------0--------0---|------0--------0---||----2--------2-----|----2--------2-----||--2--------2-------|--0--------0-------||-------------------|-------------------||-------------------|-------------------|
|-------------------------|---------------------------||-------0-----------0-----|---------0-----------0-----||-----2---2-------2---2---|-------2---2-------2---2---||---2-------2---2-------2-|-----2-------2---2-------2-||-------------------------|---------------------------||-------------------------|---------------------------|
|
| Gtr III| <| ~~~~~~~~~~~~~~ ~|-------------------------|---------------------------||-------------------------|---------------------------||-------------9-----------|---------------9-----------||-------7-----------9-----|-(9)-----------------------||-7-----------------------|---------------------------||-------------------------|---------------------------|
|-------------------------|---------------------------||----------0----------0---|------------0----------0---||-------2-----------2-----|--------2------------2-----||-----2-----------2-------|------0------------0-------||-------------------------|---------------------------||-------------------------|---------------------------|
|
| ~ ~ ~~ ~|-------------------------|---------------------------||-------------------------|---------------------------||-(9)---------------------|---------------------------||-------------------------|-----11---(11)---7---------||-----7---(7)---9---------|-(9)-----------------------||-------------------------|---------------------------|
|-----------------------------|---------------------------||----------0------------0-----|---------0-----------0-----||-------2-----2-------2---2---|-------2---2-------2---2---||-----2---------2---2-------2-|-----2-------2--2--------2-||-----------------------------|---------------------------||-----------------------------|---------------------------|
|
| ~ ~ ~~~~~~~~~~~~~~|-----------------------------|---------------------------||-----------------------------|-------7-----9----10-------||-----------------9-----------|-(9)-----------------------||-(7)---9-(9)-----------------|---------------------------||-----------------------------|---------------------------||-----------------------------|---------------------------|
|-----------------------|-----------------------||--------0----------0---|-------0-----------0---||------2----------2-----|-----2----------2------||----2----------2-------|---0----------0--------||-----------------------|-----------------------||-----------------------|-----------------------|
|
| ~~~~~~~~~~~~~~~~~~~~~~~~~~~~~~~~~~~~~~~~~~~|-----------------------|-----------------------||-12---------10---------|-----------10-----12---||-----------------------|-7---------------------||-----------------------|-----------------------||-----------------------|-----------------------||-----------------------|-----------------------|
|---------------------------------|--------------------------------||---------0-----------------0-----|---------0--------------0-------||------2----2------------2----2---|------2----2---------2-----2----||----2--------2-------2---------2-|----2--------2----2-----------2-||---------------------------------|--------------------------------||---------------------------------|--------------------------------|
|
| ~~~~~~~~~ ~~~ ~~|---------------------------------|-----------------------------17-||-14-----12-----14b15---14-12S====|=17-----17-----17------17-19----||---------------------------------|--------------------19----------||---------------------------------|--------------------------------||---------------------------------|--------------------------------||---------------------------------|--------------------------------|
|--------------------------------|------------------------------------------||-----------0--------------0-----|----------0----------------------0--------||---------2-------------2--------|------2----------------------2------------||-------2-------------2----------|----0---------------------0---------------||--------------------------------|------------------------------------------||--------------------------------|------------------------------------------|
|
| ~~|--------------------------------|------------------------------------17----||-21b22---------21b22r====21--17-|-15-----(15)--15h17p15S14---15-(15)----15-||--------------------------------|------------------------------------------||--------------------------------|------------------------------------------||--------------------------------|------------------------------------------||--------------------------------|------------------------------------------|
|--------------------------------||--------------------------|||---------0--------------0-------||---------0----------------|||------2----2--------2------2----||------2----2---------2----|||----2--------2----2-----------2-||----2--------2----2-------|||--------------------------------||--------------------------|||--------------------------------||--------------------------||
|
| ~~~~~~~~~~~~~~~~ ~~~~~~~~~|-19-----17----------------------||-19-----17----------19----|||---------------17-----(17)---17-||---------------17------17-|||--------------------------------||--------------------------|||--------------------------------||--------------------------|||--------------------------------||--------------------------|||--------------------------------||--------------------------||
|-----------------------------------------||------------------------------|||--------------0------------------0-------||------------0------------0----|||----------2-------------------2----------||--------2-------------2-------|||--------2---------------2----------------||-----0--------------0---------|||-----------------------------------------||------------------------------|||-----------------------------------------||------------------------------||
|
| ~~ ~~~~~~~~~~~|-19b21======(19)r--19--19b21r19-17-(17)--||------------------------------|||-----------------------------------------||-15h17-15-(15)-14--15---17-15-|||-----------------------------------------||------------------------------|||-----------------------------------------||------------------------------|||-----------------------------------------||------------------------------|||-----------------------------------------||------------------------------|||---------------------------------------------------|||--------------0---------------------0--------------|||----------2--------2------------2-------2----------|||--------2---------------2-----2---------------2----|||---------------------------------------------------|||---------------------------------------------------||
|
| ~~|---------------------------------------------------|||-17b19======(17)r-17b19r==17-17---(17)-15-14-15-17-|||---------------------------------------------------|||---------------------------------------------------|||---------------------------------------------------|||---------------------------------------------------|||----------------------------------------------------------------------|||------------0---------------------------------------------------------|||---------2--------2------------------------------2--------------------|||-------2---------------2----------------2-----------------------------|||----------------------------------------------------------------------|||----------------------------------------------------------------------||
|
|----------------------------------------------------------------------|||-15b17-----15-14----14---14b15r14-12------15-14-12-14-15-14-12-14-12--|||-----------------16------------------14-------------------------------|||----------------------------------------------------------------------|||----------------------------------------------------------------------|||----------------------------------------------------------------------|||--------------------------------------------------------------------|||--------------------------0-------------------------------------0---|||-----------------2-------------------------------------------2------|||--------2-----------------------------------------------2-----------|||--------------------------------------------------------------------|||--------------------------------------------------------------------||
|
| ~~|--------------------------------------------------------------------|||-14-15-17-17-17-17-17-17-14-15-17-17-17-15-14-14-15-17---------17---|||-------------------------------------------------------16b18--------|||--------------------------------------------------------------------|||--------------------------------------------------------------------|||--------------------------------------------------------------------|||-------------------------------------------------------------|||--------------0---------------------------0------------------|||----------2----------------------2---------------------------|||--------0---------------0------------------------------------|||-------------------------------------------------------------|||-------------------------------------------------------------||
|
| ~~|--------------------------------------------17-19b21==(19)---|||-----------------------------------------19------------------|||-14-16-14---(14)--(14)----------16-18-19---------------------|||--------------------------16-19------------------------------|||-----------------------17------------------------------------|||-------------------------------------------------------------||
|---------------------------------------------------------------|||------------------0---------------------------0----------------|||----------2-------------2------------------2-----2-------------|||------2---------------------2------------2-------------2-------|||---------------------------------------------------------------|||---------------------------------------------------------------||
|
| ~~|-(19)---(19)r-20-19b21====(19)r-19-17-19-----------------------|||---------------------------------------------------------17----|||---------------------------------------------------16----------|||------------------------------------------------14----14----14-|||---------------------------------------------14----------------|||---------------------------------------------------------------||
10/8|--------------------------------------------------------------------------------------------|||---------------------------0----------------------------------------------------------------|||------------------2-----------------2--------------------------------------2----------------|||-----------2------------------------------------2-----------------2-------------------------|||--------------------------------------------------------------------------------------------|||--------------------------------------------------------------------------------------------||
|
|----19-16-----------------------------------------------------------------16-17-17b19==(17)-|||----------17--------------------------------------15-17b19==(17)r---17-19-------------------|||-15----------16-x-x-------------16h17----16h17-18-----------------x-------------------------|||--------------------19p18-19-19-------19----------------------------------------------------|||--------------------------------------------------------------------------------------------|||--------------------------------------------------------------------------------------------||
12/8|-------------------------------------------------------------------------|||----------------0------------------------------0-------------------------|||----------2---------------------------2----------------------------------|||-------2------------------------2----------------------------------------|||-------------------------------------------------------------------------|||-------------------------------------------------------------------------||
|
| ~~|-(17)r---17-16-17--16----16-17-16----------16-17-16----------16-17-16----|||----------------------19----------19-17-19----------19-17-19----------19-|||-------------------------------------------------------------------------|||-------------------------------------------------------------------------|||-------------------------------------------------------------------------|||-------------------------------------------------------------------------||
|-----------------------------------------------------------------------------------------------------------------------||-------------------------------0-----------------------------------------------------------0---------------------------||--------------------2-------------------------------------------------------2------------------------------------------||-----------0-------------------------------------------------------0---------------------------------------------------||-----------------------------------------------------------------------------------------------------------------------||-----------------------------------------------------------------------------------------------------------------------|
|
|-16-19-17-------------15-17-15------------16-19-17-16------------------------------------------------------------------||----------19-17----19------------19-17-19-------------19-17----------------------17-------17---------------------------||----------------18------------------------------------------18-19-19-18-16-18-19----18-19----19-18-19-18-16-18-16------||------------------------------------------------------------------------------------------------------------------19--||-----------------------------------------------------------------------------------------------------------------------||-----------------------------------------------------------------------------------------------------------------------|
Gtr IV|--------------------------|----------------------------------||--------------------------|----------------------------------||--2-----2-------2---2-2-2-|--2-----2----2-----2--2---2--2--2-||--2-----2-------2---2-2-2-|--2-----2----2-----2--2---2--2--2-||--0-----0-------0---0-0-0-|--0-----0----0-----0--0---0--0--0-||--------------------------|----------------------------------|
|
| ~~ ~~ ~~|--------------------------|----------------------------------||-16---(16)--17-14---------|-16---(16)--17-19-17----(17)---16-||--------------------------|----------------------------------||--------------------------|----------------------------------||--------------------------|----------------------------------||--------------------------|----------------------------------|
|------------------------------------------------||------------------------------------------------||--2------2------------2-----------2-----2-2-----||--2------2------------2-----------2-----2-2-----||--0------0------------0-----------0-----0-0-----||------------------------------------------------|
|
|------------------------------------------------||-16--14-14--16-14S12-10-12-10S8-7-8S7-5-3-5-3-2-||------------------------------------------------||------------------------------------------------||------------------------------------------------||------------------------------------------------|
|----------------------------------------------------------------|||----------------------------------------------------------------|||-2-------------2-----------2-----2-----------2-----2-----2---2--|||-2-------------2-----------2-----2-----------2-----2-----2---2--|||-0-------------0-----------0-----0-----------0-----0-----0---0--|||----------------------------------------------------------------||
|
|---------------------------------------4-2-0-4-2-0-4-2-0-2-4S5--|||-0-4-2-0-4-2-0-4-2-0-4-2-0-4-2-0-4-2-0--------------------------|||----------------------------------------------------------------|||----------------------------------------------------------------|||----------------------------------------------------------------|||----------------------------------------------------------------|||---------|---------|---------|---------||---------|---------|---------|---------||---------|---------|-7---7-7-|-7---7-7-||-5---5-5-|-5---5-5-|-7---7-7-|-7---7-7-||-5---5-5-|-5---5-5-|-5---5-5-|-5---5-5-||-3---3-3-|-3---3-3-|---------|---------|
|
|---------|---------|---------|---------||---------|---------|---------|---------||-0h==7---|-0h==7---|---------|---------||---------|---------|-0h==7---|-0h==7---||---------|---------|---------|---------||---------|---------|---------|---------|
||------------|-----------|-----------|-----------|||o-----------|-----------|-----------|-----------|||------------|-----------|-----------|-----------|||--2-2-2-2-2-|-2-2-2-2-2-|-2-2-2-2-2-|-2-2-2-2-2-|||o-----------|-----------|-----------|-----------|||--0-0-0-0-0-|-0-0-0-0-0-|-0-0-0-0-0-|-0-0-0-0-0-|
|
| PM PM PM PM||------------|-----------|-----------|-----------|||o-------0---|-------0---|-------0---|-------0---|||------2---2-|-----2---2-|-----2---2-|-----2---2-|||----2-------|---2-------|---2-------|---2-------|||o-----------|-----------|-----------|-----------|||--0---------|-0---------|-0---------|-0---------|
|-----------|-----------|-----------|------------|||-----------|-----------|-----------|-----------o|||-----------|-----------|-7-7-7-7-7-|-7-7-7-7-7--|||-2-2-2-2-2-|-2-2-2-2-2-|-----------|------------|||-----------|-----------|-5-5-5-5-5-|-5-5-5-5-5-o|||-2-2-2-2-2-|-2-2-2-2-2-|-----------|------------||
|
| PM PM PM----| PM----||-----------|-----------|-----------|------------|||-------0---|-------0---|-------5---|-------5---o|||-----2---2-|-----2---2-|-----4---4-|-----4---4--|||---2-------|---2-------|---7-------|---7--------|||-----------|-----------|-5---------|-5---------o|||-2---------|-2---------|-----------|------------||
PM PM PM PM|-------------------|-------------------|-------------------||---------------|||-------------------|-------------------|-------------------||---------------|||-------[2]-[4]-[2]-|-------[2]-[4]-[2]-|-------[2]-[4]-[2]-||-------[2]-[4]-|||---[2]-------------|---[2]-------------|---[2]-------------||---[2]---------|||-------------------|-------------------|-------------------||---------------|||-0-----------------|-0-----------------|-0-----------------||-0-------------||
|
| PM PM PM PM|-------------------|-------------------|-------------------||---------------|||-------------------|-------------------|-------------------||---------------|||-------[2]-[4]-[2]-|-------[2]-[4]-[2]-|-------[2]-[4]-[2]-||-------[2]-[4]-|||---[2]-------------|---[2]-------------|---[2]-------------||---[2]---------|||-------------------|-------------------|-------------------||---------------|||-0-----------------|-0-----------------|-0-----------------||-0-------------||
PM PM PM----| PM----||-----------|-----------|-----------||---------|||-------0---|-------0---|-------5---||-------5-|||-----2---2-|-----2---2-|-----4---4-||-----4---|||---2-------|---2-------|---7-------||---7-----|||-----------|-----------|-5---------||-5-------|||-2---------|-2---------|-----------||---------||
|
| PM PM PM----| PM----||-----------|-----------|-----------||---------|||-------0---|-------0---|-------5---||-------5-|||-----2---2-|-----2---2-|-----4---4-||-----4---|||---2-------|---2-------|---7-------||---7-----|||-----------|-----------|-5---------||-5-------|||-2---------|-2---------|-----------||---------||
Gtr I||--------------------------------------------|||o----------------12-------15----------------|||--------14----14----13-14----14-13-14-13----|||--12-14----14----------------------------14-|||o-------------------------------------------|||--------------------------------------------|
|
| PM||--------------------------------------------|||o-------------------------------------------|||---------------2-----4-----2-----------4----|||---------2-----------------------2----------|||o-------------------------------------------|||---0----------------------------------------|
|
| Gtr IV||--------------------------------------------|||o----------------12-------15----------------|||--------14----14----13-14----14-13-14-13----|||--12-14----14----------------------------14-|||o-------------------------------------------|||--------------------------------------------|
|-------------------------------------------||----------------12-------15----------------||-------14----14----13-14----14-13-14-13----||-12-14----14----------------------------14-||-------------------------------------------||-------------------------------------------|
|
| PM|-------------------------------------------||-------------------------------------------||--------------2-----4-----2-----------4----||--------2-----------------------2----------||-------------------------------------------||--0----------------------------------------|
|
|-------------------------------------------||----------------12-------15----------------||-------14----14----13-14----14-13-14-13----||-12-14----14----------------------------14-||-------------------------------------------||-------------------------------------------|
|-------------------------------------------||----------------12-------15----------------||-------14----14----13-14----14-13-14-13----||-12-14----14----------------------------14-||-------------------------------------------||-------------------------------------------|
|
| PM|-------------------------------------------||-------------------------------------------||--------------2-----4-----2-----------4----||--------2-----------------------2----------||-------------------------------------------||--2----------------------------------------|
|
|-------------------------------------------||----------------12-------15----------------||-------14----14----13-14----14-13-14-13----||-12-14----14----------------------------14-||-------------------------------------------||-------------------------------------------|
|--------------------------------------------|||----------------12-------15----------------o|||-------14----14----13-14----14-13-14-13-----|||-12-14----14----------------------------14--|||-------------------------------------------o|||--------------------------------------------||
|
| PM---------------||--------------------------------------------|||--------------------5----------------------o|||--------------4-----------4-----------------|||--------7-----------------------7-----------|||--5-----------------------------------5----o|||--------------------------------------------||
|
|--------------------------------------------|||----------------12-------15----------------o|||-------14----14----13-14----14-13-14-13-----|||-12-14----14----------------------------14--|||-------------------------------------------o|||--------------------------------------------||
|-------------------------------------------||----------------12-------15----------------||-------14----14----13-14----14-13-14-13----||-12-14----14----------------------------14-||-------------------------------------------||-------------------------------------------|
|
|-------------------------------------------||-----------------0--------3----------------||--------2-----2-----1--2-----2--1--2--1----||--0--2-----2-----------------------------2-||-------------------------------------------||-------------------------------------------|
|
|-------------------------------------------||----------------12-------15----------------||-------14----14----13-14----14-13-14-13----||-12-14----14----------------------------14-||-------------------------------------------||-------------------------------------------|
|-------------------------------------------||-------------15-------------------------12-||-------13-14----14-13-14-13----14----14----||-12-14----------------------14----14-------||-------------------------------------------||-------------------------------------------|
|
|-------------------------------------------||--------------3--------------------------0-||--------1--2-----2--1--2--1-----2-----2----||--0--2-----------------------2-----2-------||-------------------------------------------||-------------------------------------------|
|
|-------------------------------------------||-------------15-------------------------12-||-------13-14----14-13-14-13----14----14----||-12-14----------------------14----14-------||-------------------------------------------||-------------------------------------------|
|-------------------------------------------||----------------12-------15----------------||-------14----14----13-14----14-13-14-13----||-12-14----14----------------------------14-||-------------------------------------------||-------------------------------------------|
|
|-------------------------------------------||-----------------0--------3----------------||--------2-----2-----1--2-----2--1--2--1----||--0--2-----2-----------------------------2-||-------------------------------------------||-------------------------------------------|
|
|-------------------------------------------||----------------12-------15----------------||-------14----14----13-14----14-13-14-13----||-12-14----14----------------------------14-||-------------------------------------------||-------------------------------------------|
|-------------------------------------------||----------------12-------------------------||-------14----14----------------------------||-12-14----14-------------------------------||-------------------------------------------||-------------------------------------------|
|
|----------------------------------------12-||-----------------0----------------12-15----||--------2-----2----------14----14----------||--0--2-----2-------12-14----14-------------||-------------------------------------------||-------------------------------------------|
|
|----------------------------------------12-||----------------------------------12-15----||-------------------------14----14----------||-------------------12-14----14-------------||-------------------------------------------||-------------------------------------------|
|-------------------------------------------||----------------12-------15----------------||-------14----14----13-14----14-13-14-13----||-12-14----14----------------------------14-||-------------------------------------------||-------------------------------------------|
|
|-------------------------------------------||-----------------0--------3----------------||--------2-----2-----1--2-----2--1--2--1----||--0--2-----2-----------------------------2-||-------------------------------------------||-------------------------------------------|
|
|-------------------------------------------||----------------12-------15----------------||-------14----14----13-14----14-13-14-13----||-12-14----14----------------------------14-||-------------------------------------------||-------------------------------------------|
|-------------------------------------------||-------------15-------------------------12-||-------13-14----14-13-14-13----14----14----||-12-14----------------------14----14-------||-------------------------------------------||-------------------------------------------|
|
|-------------------------------------------||--------------3--------------------------0-||--------1--2-----2--1--2--1-----2-----2----||--0--2-----------------------2-----2-------||-------------------------------------------||-------------------------------------------|
|
|-------------------------------------------||-------------15-------------------------12-||-------13-14----14-13-14-13----14----14----||-12-14----------------------14----14-------||-------------------------------------------||-------------------------------------------|
|-------------------------------------------|||----------------12-------15----------------|||-------14----14----13-14----14-13-14-13----|||-12-14----14----------------------------14-|||-------------------------------------------|||-------------------------------------------||
|
|-------------------------------------------|||-----------------0--------3----------------|||--------2-----2-----1--2-----2--1--2--1----|||--0--2-----2-----------------------------2-|||-------------------------------------------|||-------------------------------------------||
|
|-------------------------------------------|||----------------12-------15----------------|||-------14----14----13-14----14-13-14-13----|||-12-14----14----------------------------14-|||-------------------------------------------|||-------------------------------------------||
|-12-----------------------------------------------------------------------------------------------|||-------14-15-14-12----12--------------------------------------------------------------------------|||----15-------------15----15-13-11-----------------------------------------------------------------|||----------------------------------14-12-11----------14----11-12-11-------------12-11--------------|||-------------------------------------------14-13-11----13----------14-13-11----------14-13-11-----|||----------------------------------------------------------------------------14----------------14--||
|
|--------------------------------------------------------------------------------------------------|||--5-----2--3--2-----------------------------------------------------------------------------------|||-----3-----------4--3--4--3--1--------------------------------------------------------------------|||--------------------------------4--2--0--------------2--------------------------0-----------------|||-----------------------------------------4--2--1--------1--4--5--4--2--1-----------4--2--1--------|||--------------------------------------------------4-----------------------4--2--------------4--2--||
|
|-12-----------------------------------------------------------------------------------------------|||-------14-15-14-12----12--------------------------------------------------------------------------|||----15-------------15----15-13-11-----------------------------------------------------------------|||----------------------------------14-12-11----------14----11-12-11-------------12-11--------------|||-------------------------------------------14-13-11----13----------14-13-11----------14-13-11-----|||----------------------------------------------------------------------------14----------------14--|| Gtrs I, IV, V|-----------------||-----------------||-----------------||-------------------|||-----------------||-----------------||-----------------||-------------------|||-----------------||-----------------||-----------------||-------------------|||-2---------------||-4----------(4)--||-6---------------||-3----------(3)----|||-----------------||-----------------||-----------------||-------------------|||-0---------------||-2----------(2)--||-4---------------||-1----------(1)----||
|
|-6---4---7---4---||-6---4---7---4---||-6---4---7---4---||-6---4---7---4-----|||-----------------||-----------------||-----------------||-------------------|||-3---1---4---1---||-3---1---4---1---||-3---1---4---1---||-3---1---4---1-----|||-----------------||-----------------||-----------------||-------------------|||-----------------||-----------------||-----------------||-------------------|||-----------------||-----------------||-----------------||-------------------||
|
| Gtr II|-----------------||-----------------||-----------------||-------------------|||-----------------||-----------------||-----------------||-------------------|||-----------------||-----------------||-----------------||-------------------|||-----------------||-4----------(4)--||-----------------||-3----------(3)----|||-----------------||-----------------||-----------------||-------------------|||-----------------||-2----------(2)--||-----------------||-1----------(1)----|||--------------------||--------------||------------------|-------------------||--------------------||--------------||------------------|-------------------||--------------------||--------------||------------------|-2-----------------||-2------------------||-4------------||-5----------------|-------------------||--------------------||--------------||------------------|-0-----------------||-0------------------||-2------------||-3----------------|-------------------|
|
|-6---7---9---9b11r==||=6--7--9--11--||-6---7---9---11---|-5---7---9---11----||--------------------||--------------||------------------|-------------------||-3---4---6---6b8r===||=3--4--6---8--||-3---4---6----8---|-6---8---9---11----||--------------------||--------------||------------------|-------------------||--------------------||--------------||------------------|-------------------||--------------------||--------------||------------------|-------------------|
|-----------------------|-------------------------||-----------------------|-------------------------||--6--------------------|-5-----------------------||-----------------------|-------------------------||--4--------------------|-3-----------------------||-----------------------|-------------------------|
|
|-12b14---12---11---9---|-8---(8)-------------8-9-||--9b11----9----7---5---|-9---(9)--9-9---(9)--4-5-||-----------------------|----------8-8---(8)------||-----------------------|-------------------------||-----------------------|-------------------------||-----------------------|-------------------------|
|------------------|----------------||------------------|----------------||--4---------------|-2--------------||------------------|----------------||--2---------------|-0--------------||------------------|----------------|
|
|-11---9---7---5---|-7b9--7--5------||--7---5---4---2---|-4b6--4--2--5---||------------------|------------2---||------------------|----------------||------------------|----------------||------------------|----------------|
|-----------------||-----------------|||-----------------||-----------------|||-----------------||-----------------|||-3---------------||-5----------(5)--|||-----------------||-----------------|||-1---------------||-3----------(3)--||
|
|-7---5---8---5---||-7---5---8---8---|||-----------------||-----------------|||-4---2---5---2---||-4---2---5---2---|||-----------------||-----------------|||-----------------||-----------------|||-----------------||-----------------||
|
| Gtr II|-----------------||-----------------|||-----------------||-----------------|||-----------------||-----------------|||-----------------||-----------------|||-----------------||-----------------|||-----------------||-----------------|||---------------------||---------------------|||---------------------||---------------------|||---------------------||---------------------|||--3------------------||--5------------(5)---|||---------------------||---------------------|||--1------------------||--3------------(3)---||
|
|--7----5----8----5---||--7----5----8---8----|||---------------------||---------------------|||--4----2----5----2---||--4----2----5---2----|||---------------------||---------------------|||---------------------||---------------------|||---------------------||---------------------||
|
|-19---20---17---20---||-19---20---17--20----|||---------------------||---------------------|||---------------------||---------------------|||---------------------||---------------------|||---------------------||---------------------|||---------------------||---------------------|||------------------------|---------------------|---------------|-----*||------------------------|---------------------|---------------|-----*||------------------------|---------------------|--7------------|-----*||--3---------------------|--5------------------|---------------|-----*||------------------------|---------------------|--5------------|-----*||--1---------------------|--3------------------|---------------|-----*|
|
|-19---20---22---22b24r==|=19---20---22S==15---|---------------|-----*||------------------------|---------------------|---------------|-----*||-16---17---19---19b21r==|=16---17---19S==12---|---------------|-----*||------------------------|---------------------|-12------------|-----*||------------------------|---------------------|---------------|-----*||------------------------|---------------------|---------------|-----*|
|
|------------------------|---------------------|---------------|-----*||------------------------|---------------------|--3------------|-----*||--7----4----5----2------|--0------------------|---------------|-----*||------------------------|---------------------|---------------|-----*||------------------------|---------------------|---------------|-----*||------------------------|---------------------|---------------|-----*|
Please rate this tab:
x1.0