Dream Theater - Strange Deja Vu tab

Dream Theater
STRANGE DEJA VU-From Scenes from a memory

tabbed by Andrea Narciso 

From Overture 1928E||-------------------------------------------------|B||-------------------------------------------------|G||--8-8-8-8---8-8-8-8---7-7-7----7-7-7-7-----------|D||--6-6-6-6---6-6-6-6---6-6-6----6-6-6-6-----------|A||-------------------------------------------------|E||-------------------------------------------------|
|---------------------------------------------------------||---------------------------------------------------------||-8-8-8-8---8-8-8-8---7-7-7----7-7-7-7--------------------||-6-6-6-6---6-6-6-6---6-6-6----6-6-6-6------6-------7-----||---------------------------------------------5-------6---||---------------------------------------0-4-----4-5-----5-|
||--------------------------------------------------|||--------------------------------------------------|||*--8-8-8-8---8-8-8-8---7-7-7----7-7-7-7-----------|||*--6-6-6-6---6-6-6-6---6-6-6----6-6-6-6-----------|||--------------------------------------------------|||--------------------------------------------------| Subconscious strange...
|----------------------------------------------------------||----------------------------------------------------------||--8-8-8-8---8-8-8-8---7-7-7----7-7-7-7--------------------||--6-6-6-6---6-6-6-6---6-6-6----6-6-6-6------6-------7-----||----------------------------------------------5-------6---||----------------------------------------0-4-----4-5-----5-|
|-------------------------------------------------||-------------------------------------------------||--5-5-5-5---5-5-5-5---4-4-4----4-4-4-4-----------||--3-3-3-3---3-3-3-3---3-3-3----3-3-3-3-----------||-------------------------------------------------||-------------------------------------------------|
|-----------------------------------------------------------|||-----------------------------------------------------------|||--5-5-5-5---5-5-5-5---4-4-4----4-4-4-4--------------------*|||--3-3-3-3---3-3-3-3---3-3-3----3-3-3-3------3-------4-----*|||----------------------------------------------2-------3----|||----------------------------------------0-1-----1-2-----2--||
Rhy.fig.1 ||-------------------------------------------------|||-------------------------------------------------|||-------------------------------------------------|||-----------------------6~-------4~---------------|||-----------------------------------------6-7-6-4-|||--4-0-2-5--5-4~--4p0-4-----4--4-----4--4---------| pm . . . . Closer now...
|-------------------------------------------------||-------------------------------------------------||-------------------------------------------------||-----------------------6~-------4~---------------||-----------------------------------------4-6-4-3-||--4-0-2-5--5-4~--4p0-4-----4--4-----4--4---------| pm . . . .
|-------------------------------------------------||-------------------------------------------------||-------------------------------------------------||-----------------------4~-------2~---------------||-----------------------------------------6-7-6-4-||--0-2-4-5--4-2~--2p0-2-----2--2-----2--2---------| pm . . . .
End Rhy.Fig.1 |-------------------------------------------------|||-------------------------------------------------|||-------------------------------------------------|||-----------------------4~-------2~-------6-7-6-4-|||-------------------------------------------------|||--7-5-4-5--4-2~--2p0-2-----2--2-----2--2---------|| pm . . . .
|----------------------||----------------------||----------------------||----------6-6---------||--6-7-6---4-4---------||--------7-------------|
|---------------------------|----------------------------||---------------------------|----------------------------||--8-------8------7---5-----|--8-------10------7---8-----||--6---6-6-6--6-6-6---6-----|--6---6-6-6---6-6-6---6-----||---------------------------|----------------------------||---------------------------|----------------------------| pm . . . . pm . . . . There's a house...
|---------------------------|----------------------------||---------------------------|----------------------------||--5-------5------4---2-----|--5-------5h7-----4---5-----||--3---3-3-3--3-3-3---3-----|--3---3-3-3---3-3-3---3-----||---------------------------|----------------------------||---------------------------|----------------------------| pm . . . . pm . . . .
|----------------------------|----------------------------||----------------------------|----------------------------||--8-------8------7---5--5h7-|--8-------10------7---8-----||--6---6-6-6--6-6-6---6--6---|--6---6-6-6---6-6-6---6-----||----------------------------|----------------------------||----------------------------|----------------------------| pm . . . . pm . . . .
|----------------------------|----------------------------||----------------------------|----------------------------||--5-------5------4---2--2h4-|--5-------5h7-----4---5-----||--3---3-3-3--3-3-3---3--3---|--3---3-3-3---3-3-3---3-----||----------------------------|----------------------------||----------------------------|----------------------------| pm . . . . pm . . . .
||----------------------------------||-------------------------------||||----------------------------------||-------------------------------||||*-11-11-11-11--x-10----8--8--x-x-*||*-13-13-13-13--x-11----10--10-*||||*-9--9--9--9---x-9-----9--9--x-x-*||*-11-11-11-11--x-11----11--11-*||||----------------------------------||-------------------------------||||----------------------------------||-------------------------------|| Young child...
Play Rhy.fig.1,with last bar substituted by the following:||---------------------------------------------------------||||---------------------------------------------------------||||---------------------------------------------------------||||-----------------------4~-------2~-------6-7-6-4---------||||-------------------------------------------------6-7-6---||||--7-5-4-5--4-2~--2p0-2-----2--2-----2--2---------------7-||
pm . . . . let ring --------| |--------------|--------------|------------------5-------||----------5---|--------------|---------------------5----||--6---2---4---|--------------|--6------6----------------||--6---2---2---|--------------|--6------6----7-----------||--4---0---x---|----------6---|--4--4-4-4----7-----------||----------4---|-2--4--5------|--------------5-----------| pm . . Tonight...
let ring let ring let ring let ring --------| --------| ----------| -----------| |------4----------2---------||---------------------------||---------4----------2------||-----------0------------0--||------------------------4--||--2-----2------------6-----||--6----------4----------4--||--2---2--------4---4-------||--6----------4----------2--||--0------------2-----------||--4----------2-------------||---------------------------| i just can't...
let ring let ring let ring let ring ----------| ----------| ----------| ----------| |-----------------------------|---------------------------||-----------0--------0--------|-----------0------------0--||--2-----2--------------3-----|--2-----2------4-----4-----||--2---2----------4--------4--|--2---2--------4---4-------||--0--------------4-----------|--0------------2-----------||--------------0--2-----------|---------------------------|
let ring -------| |-----3---------------------||-----|-------------------------||--------3---------8-----7--||-----|-------------------------||--5----------7----7-----7--||-----|------------<5>-<5>-<5>--||--5----------7-------------||--2--|--2----------------------||--3----------5-------5-----||--2--|--2----------------------||--3----------5-------------||--0--|--0-----0\---------------| pm . dive with bar
|--------------------------------|----------------------------------||--------------------------------|----------------------------------||--------------------------------|----------------------------------||--------------------------------|----------------------------------||----5-7---5h7---5-7~-5-7--------|----5-7---5h7---5-7~-5-7----------||--0-----0-----0----------0-3-5~-|--0-----0-----0----------0-3/h5-3~| pm . . . pm . . .
|--------------------------------------||--------------------------------------||--------------------------------------||--------------------------------------||---5-7---5h7---5-7~-5-7---------5-6-7-||-0-----0-----0----------0-5-6-7-------| pm . . . . . . . . .
|-----------------------------------------------||-----------------------------------<5>-<5>-<5>-||-----------------------------------<5>-<5>-<5>-||-----------------------------------<5>-<5>-<5>-||----5-7---5h7---5-7~-5-7-----------------------||--0-----0-----0----------0-3-4-5-0-------------|
pm . . . 4x||----------------------------------||----------------------------------||||----------------------------------||---8\-----------------------------||||*--------------------------------*||*--7\----------------------------*||||*--------------------------------*||*--6\----------------------------*||||-----5-7---5h7---5-7~-5-7---------||---7\-5-7---5h7---5-7~-5-7--------||||---0-----0-----0----------0-3-5~--||----------0-----0----------0-3-5~-|| pm . . . pm . . . Back on my feet...
gtr.1 |---------------------------------|----------------------------------||--8\-----------------------------|--8\------------------------------||--7\-----------------------------|--7\------------------------------||--6\-----------------------------|--6\------------------------------||--7\-5-7---5h7---5-7~-5-7--------|--7\-5-7---5h7---5-7~-5-7---------||---------0-----0----------0-3-5~-|---------0-----0----------0-3-4-5-|| pm . . . . . .
|
|gtr.2 |---------------------------------|----------------------------------||--8\-----------------------------|--8\------------------------------||--7\-----------------------------|--7\------------------------------||--6\-4-5---4h5---4-5~-4-5--------|--6\-4-5---4h5---4-5~-4-5---------||--7\------------------------5-7~-|--7\------------------------------||---------0-----0----------0------|---------0-----0------------------| pm . . . . .
|---------------------|-------------------|---------------------||---------------------|-------------------|---------------------||---------------------|-------------------|---------------------||---------------2-----|-------------------|---------------2-----||--4~---------2---4~--|-------------------|-4~---------2-----4~-||-----0-2-3-4---------|-0--2--3--4-3-2-0--|----0-2-3-4----------| Something's...
|-------------------|-----------------|----------------|------------------||-------------------|-----------------|----------------|------------------||-------------------|-----------------|----------------|------------------||--------2----------|------------2----|----------------|-------------2----||----------4-2----2h|4~--------2---4~-|----------------|-4~--------2---4~-||-0-2-4--------4----|--0-2-3-4--------|0--2--3-4-3-2-0-|---0-2-3-4--------|
Rhy.Fig.2|------------------------|--------------------------------||------------------------|--------------------------------||------------------------|--------------------------------||-------------4~---------|----4-6---4h6-------------------||----------------6--4----|-------------------4-6-4~-------||--0--2--2/h4---------7~-|--4-----4-----4-7~-------7-2-3--| (Listen to the record to catch the rhythm of this figure!)
End Rhy.Fig.2 |--------------------------------|--------------------------------||--------------------------------|--------------------------------||--------------------------------|--------------------------------||----4-6---4h6-------------------|----4-6---4h6-------------------||-------------------4-6-4~-------|-------------------4-6-4~-------||--4-----4-----4-7~-------7-2-3--|--4-----4-----4-7~-------7-2-3--|
|--------------------------------|---------------------||--------------------------------|---------------------||--------------------------------|--6----2-------------||----4-6---4h6-------------------|--6----2-------------||-------------------4-6-------2--|--4----0-------------||--4-----4-----4-7~-----2~3-4----|------------4~-------|
let ring let ring -------| -------||----2-------------------------|----------------------||-------2----------------------|----------------------||-----------7--7-----6-----6---|----------------------||--4--------7----7---7-----7---|----------------------||--4--------5--------4-4-4-4---|--2----4----5---------||--2---------------------------|-----------------4----| pm . . Today...
let ring let ring let ring -------| -------| ------| |-----2-----------------|-----------------||--------2--------------|-----------------||-----------7--7--------|--4---4-----1----||--4--------7----7------|--4---------2----||--4--------5--------4~-|--2---------2----||--2--------------------|------------0----|
let ring let ring let ring let ring ----------| ----------| ----------| ----------| ||-----------------------------|------------------------------|||------------0------------0---|-----------0---------0--------|||*--2-----2------------6------|--2-----2---------------3-----|||*--2---2--------4---4--------|--2---2-----------4--------4--|||---0------------2------------|--0---------------4-----------|||-----------------------------|--------------0---2-----------| I just...
|----
let ring let ring |1. let ring ----------| ----------| | -------| |---------------------------|--------3---------------------||-----------0------------0--|-----------3-------8-----7----||--2-----2------4-----4-----|-----5---------7---7-----7----||--2---2--------4---4-------|-----5---------7--------------||--0------------2-----------|-----3---------5------5-------||---------------------------|-----3---------5--------------| pm .
|----
|2. let ring let ring let ring|gtr.1 ---------| --------| -------| |-----------3------------------|---------------------5-----|--3-----------------|||--------------3---------------|------8-----------------3--|--3-----------------|||------5----------5----------5-|--7------7-----------------|--0----------------*|||------5----------5----------5-|--7------------------------|--0----------------*|||------5----------3----------3-|--5------------------------|--x-----------------|||------3----------3----------3-|--5---------(0h1)-2~-------|--3-----------------||
|
|gtrs 2,3,4 (harmony)|------------------------------||-----------------/12~-10~-8---||------------------------------||-----------------/2~--4~--5~--||-----------------/7~--5~--3~--||------------------------------| (I'm not sure about this!)
Symbol explanation p : pull off h : hammer on /,\ : slide up, slide down /h : slide up, pick only the first note ~ : vibrato ( ) : ghost note < > : natural harmonic x : muted string pm .. : dotted notes are palm muted For corrections, suggestions, questions and any other stuff mail me to metal76@libero.it
Tap to rate this tab
 
# A B C D E F G H I J K L M N O P Q R S T U V W X Y Z