Dream Theater - Led Zeppelin Medley tab

           the rover/Achilles last Stand/the Song remains The same

          AGUSTIN FRANCI .Bs.As. Argentina

   By : DREAM THEATER  From: A Change of Season
   original by : led Zeppelin
   Transcribed by AGUSTIN FRANCI
   tabbed by : AGUSTIN FRANCI
   E-Mail : fmatias@cvtci.com.ar


{drum.................} |---------------------------|----------------------------| |---------------------------|----------------------------|4 |-------------------------9-|-9--9-----------------------|4 |-------------------------9-|-9--9-----------------------| |-------------------------7-|-7--7-----------------------| |---------------------------|----------------------------|
semi-harm.-----------| |------------------------------|-------------------------| |------------------------------|--10--9-----10--9--------| |------------------------------|---9--9------9--9--------| |------------------------------|---9--9------9--9--------| |-----------------------5-h-7--|---7--7------7--7--------| |--3--3--5--5--3--5--3---------|-------------------------|
|----------0------------------| |----------0------------------| |---9-------------------------| |---9-------------------------| |---7-------------------------| |-----------------------------|
|------------------------------|-----------0--------------------------| |------------------------------|-------------3p0----------------------| |------------------------------|----(2b<4)-------2p0------------------| |------------------------------|---------------------0h2p0h2----------| |-----------------------5-h-7--|------------------------------3p0-----| |--3--3--5--5--3--5--3---------|-----------------------------------3--|
*bend a little while playing {play 4 times} |----------------------------|----------------------------| |----------------------------|----------------------------| |--------------------*-------|----------------------------| |------5-----(7b<9)--5-------|---------------------2------| |---------7-------------7----|--7---5---5--7-------2------| |---0------------------------|-----------------3---0------|
|----------------------------|-------------------------| |----------------------------|-------------------------| |--11--11---x--9--9---x--7---|-----------------7/-11---| |--11--11---x--9--9---x--7---|-----------------7/-11---| |--9---9----x--7--7---x--5---|-----------------5/-9----| |----------------------------|-------------------------|
{play 2 times} |----------------------------|--------------------------| |----------------------------|--------------------------| |--11--11--x--14--14--x--9/--|------------------7/-12---| |--11--11--x--14--14--x--9/--|------------------7/-12---| |--9---9---x--12--12--x--7/--|------------------5/-10---| |----------------------------|--------------------------|
|----------------------------|---------------------------| |----------------------------|---------------------------| |--11--11--x--9---9--x---7---|---7--x--6--6--x--4--------| |--11--11--x--9---9--x---7---|---7--x--6--6--x--4--------| |--9---9---x--7---7--x---5---|---5--x--4--4--x--2--------| |----------------------------|---------------------------|
|------------------------------|-------------------------| |------------------------------|-------------------------| |----4-------------------------|-------------------------| |----4--------------------2----|-------------------------| |----2----5---7-----------2----|-------------------------| |-----------------3--0----0----|-------------------------|
Achilles last stand
tempo:146 |-----9/-7---7--7------------|-------------------------------| |----10/-8---8--8------------|-------------------------------| |----11/-9---9--9------------|-------------------------------| |----------------------------|---------7--7--7---7--7--8--9--| |----------------------------|-------------------------------| |----------------------------|-------------------------------|
[play 4 times] |----------------7-------------|-(7)------------------------| |----------------7-------------|-(7)------------------------| |----------------7-------------|-(7)------------------------| |--7--7----------7-------------|-(7)------------------------| |--------7-------7-------------|-(7)------------------------| |-----------0------------------|----------------------------|
1. It was an april...... 2. In to the sun and south....... [A] [play 3 times] |-----------9----(9)/-7------|-------------------5----|-----| |----------10----(10)/-8-----|--------7----------7----|-----| |----------11----(11)/-9-----|--------7-----7---------|-----| |----------------------------|--------7---------------|-----| |----------------------------|------------------------|-----| |--0-------------------------|---0--------------------|-----|
|-------/-9-------7----------|-------------------7----|-----| |-------/10-------8----------|-------------------7----|-----| |-------/11-------9----------|-------7------7---------|--X--| |----------------------------|-------7----------------|--X--| |----------------------------|------------------------|-----| |--0-------------------------|--0---------------------|-----|
[ play guitar 2. 2nd time] |-----9/7--7--7--------------|---------------------------| |----10/8--8--8--------------|---------------------------| |----11/9--9--9--------------|---------------------------| |----------------------------|----------7-7-7--7-7-8-9---| |----------------------------|---------------------------| |----------------------------|---------------------------|
| | | guitar 2. | |----------------------------|---12-9-----9fb---9--7-----| |----------------------------|--x-----10-10fb- 10--8-----| |----------------------------|-x-------------------------| |----------------------------|---------------------------| |----------------------------|---------------------------| |----------------------------|---------------------------|
|--------------7-------------|---------------------------| |--------------7-------------|---------------------------| |--------------7-------------|---------------------------| |--7-7---------7-------------|---------------------------| |-------7------7-------------|---------------------------| |----------0-----------------|---------------------------|
| | | guitar 2. | |----------------------------|---10-7---7/-9-------------| |----------------------------|--x-----8-8/10---10--------| |----------------------------|-x---------------11--11----| |----------------------------|---------------------12----| |----------------------------|---------------------------| |----------------------------|---------------------------|
We swept new york a glancing kiss.... to seek the man.... |-------8---(8)/-7---7----|-----|---------------7-------| |------10--(10)/-8---8----|-----|---------------7-------| |------11--(11)/-9---9----|-----|------7----7-----------| |-------------------------|-----|------7----------------| |-------------------------|-----|-----------------------| |--0----------------------|-----|--0--------------------|
[play 2 times] |-------8--(8)/--7---7----|-----|------------------5----| |------10--(10)/-8---8----|-----|------7-----------7----| |------11--(11)/-9---9----|-----|------7--------7-------| |-------------------------|-----|------7----------------| |-------------------------|-----|-----------------------| |--0----------------------|-----|--0--------------------|
[play 2 times] |----------------------------|---------------------------| |----------------------------|---------------------------| |--9-7-8-9----7-8-9-9-7-8----|--9-7-9--10----------------| |--9-7-8-9----7-8-9-9-7-8----|--9-7-9--10----------------| |----------------------------|---------------------------| |----------------------------|---------------------------|
intrelude. |----------------------------|---------------------------| |----------------------------|---------------------------| |----------------------------|---------------------------| |----------------------------|---------------------------| |---1/2-----3--------4/5-----|-----6/7--------9----------| |--------3-------5-----------|--7----------8------10-----|
|----------------------------|----------------------------| |----------------------------|----------------------------| |----------------------------|----------------------------| |---4/5------7-------8/9-----|-------10-------10-/12------| |--------7-------9-----------|--10--------12----------14--| |----------------------------|----------------------------|
|----------------------------|---------------------------| |----------------------------|---------------------------| |----------------------------|---------------------------| |--5-------5/7--------8/9----|------10-------11/12-------| |------7---------9-----------|--10------12-----------14--| |----------------------------|---------------------------|
{2nd time finish here}.Go to [B] |----------------------------|------------------------------| |----------------------------|------------------------------| |--7/9-------11-------12-----|------13/14-------15/16-------| |-------10-------12----------|--14----------16----------17--| |----------------------------|------------------------------| |----------------------------|------------------------------|
* |----------------------------|------------------------------| |---17fb--------17--17-------|------------------------------| |---18fb--------16--16-------|------------------------------| |----------------------------|-------------7-7-7--7-7-8-9---| |----------------------------|------------------------------| |----------------------------|------------------------------|
* repeat one time |-------------7--------------|------------------------------| |-------------7--------------|------------------------------| |-------------7--------------|------------------------------| |--7-7--------7--------------|------------------------------| |------7------7--------------|------------------------------| |---------0------------------|------------------------------|
BACK TO [A]
[B] solo |----------------------------|------------------------------| |----7/5--5--5---------------|---8br-(8)--------------------| |----------------------------|-------------------7fb--------| |----------------------------|------------------------------| |----------------------------|------------------------------| |----------------------------|------------------------------|
|----------------------------|----------3-------5----5fb----| |------------5--5---(5)------|--------x---------------------| |---(7)/-5----------(5)------|-------5----------------------| |----------------------------|------------------------------| |----------------------------|------------------------------| |----------------------------|------------------------------|
|---3h5p3p0----3h5p3p0---3h530-|----3h5p3p0--------3h5p3------| |------------------------------|------------------------------| |-----------4----------4-------|--4---------4-----------------| |------------------------------|------------------------------| |------------------------------|------------------------------| |------------------------------|------------------------------|
|-----3---0---5------|-------------7--|--------------------| |--5------0----------|----------------|---7/5---5---5--5---| |--------------------|----------7-----|--------------------| |--------------------|-----7/9--------|--------------------| |--------------------|----------------|--------------------| |--------------------|----------------|--------------------|
|----------------------------|---------------10fb-----------| |---7---8--10---8h10p8/7-----|---8---7---8------------------| |----------------------------|------------------------------| |----------------------------|------------------------------| |----------------------------|------------------------------| |----------------------------|------------------------------|
|--(10)---------12---14------|---14brp12----14brp12---------| |--(10)-----12---------------|------------------------------| |----------------------------|------------------------------| |----------------------------|------------------------------| |----------------------------|------------------------------| |----------------------------|------------------------------|
|--12--14--14br-(14)p12--15--|---15fbr(15)------------------| |----------------------------|---------------13---13--------| |----------------------------|------------------------------| |----------------------------|------------------------------| |----------------------------|------------------------------| |----------------------------|------------------------------|
|----------------------------|------------------------------| |---12---13-------12---------|------------------------------| |-------------14-------------|------------------------------| |----------------------------|------------------------------| |----------------------------|------------------------------| |----------------------------|------------------------------|
slower:97
|------------------------------|----------------------------------| |------------------------------|----------------------------------|5 |-12---------------------12-14-|--14fbr(14)br12-------------12-14-|4 |----141414-----------14-------|----------------141414----14------| |------------------------------|----------------------------------| |------------------------------|----------------------------------|
| guitar 2.[myung play this part] | |------------------------------|----------------------------------| |------------------------------|----------------------------------| |------------------------------|----------------------------------| |--4442--4442--4442--4442------|-4442----4442-----4442--4442------| |--2222--2222--2222--2222------|-3333----3333-----3333--3333------| |------------------------------|----------------------------------|
|--------------------------------------------------------| |---12-1-315p13p12h13p12--12--1213p12--12------121315----| |-----------------------14--14-------14------------------| |--------------------------------------------------------| |--------------------------------------------------------| |--------------------------------------------------------|
|guitar 2. | |--------------------------------------------------------| |--------------------------------------------------------| |--------------------------------------------------------| |----4-4-4-2-----4-4-4-2------4-4-4-2----4-4-4-2---------| |----2-2-2-2-----2-2-2-2------2-2-2-2----2-2-2-2---------| |--------------------------------------------------------|
|-12-14-15-15p14p12-14---(14)12--12-----------------------------------| |------------------------------15----15-p12h13p12----12---------------| |-------------------------------------------------14----14p12---14----| |-------------------------------------------------------------14---14-| |---------------------------------------------------------------------| |---------------------------------------------------------------------|
|guitar 2. | |---------------------------------------------------------------------| |---------------------------------------------------------------------| |---------------------------------------------------------------------| |----4-4-4-2------4-4-4-2--------4-4-4-2-------4-4-4-2----------------| |----2-2-2-2------2-2-2-2--------2-2-2-2-------2-2-2-2----------------| |---------------------------------------------------------------------|
a tempo: 146 |----------------------------|-------------15------15----|--17fb---| |----------------------------|----------15----17------17-|---------| |--12-14p12---------12-------|---14/16-------------------|---------| |-----------14-14------------|---------------------------|---------| |----------------------------|---------------------------|---------| |----------------------------|---------------------------|---------|
|----x--17--x----12--|--12----15br(15)---|-----15p14p12-12h14p12p0-| |--------------------|-------------------|-------------------------| |--------------------|-------------------|-------------------------| |--------------------|-------------------|-------------------------| |--------------------|-------------------|-------------------------| |--------------------|-------------------|-------------------------|
|-----------------------|----------------|-----------12-14-15p14p12-| |--15fb----15--13-------|--13/12-12--12--|----12-15-----------------| |------------------14---|----------------|-12-----------------------| |-----------------------|----------------|--------------------------| |-----------------------|----------------|--------------------------| |-----------------------|----------------|--------------------------|
|14--12-14-15-17-19--20fb----|--(20)---20-19--17--|-19-------(19)--| |----------------------------|--------------------|----------------| |----------------------------|--------------------|----------------| |----------------------------|--------------------|----------------| |----------------------------|--------------------|----------------| |----------------------------|--------------------|----------------|
|--17fb-------17-15-17-------|-17b-----|-17fb-17-15-17fb--17---15-| |----------------------------|---------|--------------------------| |----------------------------|---------|--------------------------| |----------------------------|---------|--------------------------| |----------------------------|---------|--------------------------| |----------------------------|---------|--------------------------|
slower :97 |14151415--14h15p14p1214--1214|15-17/15--15-15--12-15p14-14----| |-----------------------------|--------------------------------| |-----------------------------|-----------------------------14-| |-----------------------------|--------------------------------| |-----------------------------|--------------------------------| |-----------------------------|--------------------------------|
|gtr.2 | | Em Esus2.... D6 C D6/C....... D6 | |-7777--7777--7777--7777--7-7-|-8887--8887---8887--8887--8-7---| |-8887--8887--8887--8887--8-7-|-8887--8887---8887--8887--8-7---| |-9999--9999--9999--9999--9-7-|-9997--9997---9997--9997--9-7---| |-----------------------------|--------------------------------| |-----------------------------|--------------------------------| |-----------------------------|--------------------------------|
Em Esus2... D6 C D6/C..... D6 |-----------------------------|--------------------------------| |--13p1212--------------------|---------------------------12---| |------------14-12--12--14----|----12------------------12------| |-----------------14--14------|--14--------------12h14---------| |-----------------------------|--------------------------------| |-----------------------------|--------------------------------|
Here you can play the intrlude.{ Or let the bass do it}
|-17fbr(17)--15--------------|----------------|----------------| |----------------------17----|--15------------|----------------| |----------------------------|--------16---14-|-14fbr-12-------| |----------------------------|----------------|------------14--| |----------------------------|----------------|----------------| |----------------------------|----------------|----------------|
|----------------------------|------------------------------| |----------------------------|------------------------------| |----------------------------|----------?----?----?---------| |----12----------------------|------------------------------| |----------14-10------10-----|------------------------------| |------------------10--------|------------------------------|
The song remains The same
|--15------------------------|------------------------------| |-----------15---------------|------------------------------|4 |-----------------14fbr------|-----12----------12b----------|4 |----------------------------|----------12h-14------12------| |----------------------------|------------------------------| |----------------------------|------------------------------|
|----------------------------|--------------------|--15-------------| |----------------------------|--------------------|------15br----15-| |----------------------------|--12----------------|-----------------| |--12fb-------------(12)-----|------12br-----(12)-|-----------------| |----------------------------|--------------------|-----------------| |----------------------------|--------------------|-----------------|
|----------------------------|----------------|--------------| |----------------------------|----------------|--------------| |-14fbr--------12------------|----------------|--------------| |------------------12--------|-14-------(14)--|--------------| |----------------------------|----------------|--------------| |----------------------------|----------------|--------------|
|----------------------------|------------------------------| |----------------------------|--6-----5---------------------| |------------------5--5--7---|-----7-----5--7--5------------| |---------5--5--7------------|------------------------------| |---5--7---------------------|------------------------------| |----------------------------|------------------------------|
|--7/8--7--5-----------------|---------7br-p5---------------| |----------------7b----7-----|----5-------------------------| |----------------------------|------------------------------| |----------------------------|------------------------------| |----------------------------|------------------------------| |----------------------------|------------------------------|
|----------------------------|------------------------------| |----------------------------|------------------------------| |----------------------------|------------------------------| |----------------------------|------------------------------| |--3--3--3--2--2--2--0-------|---0---0---0------------------| |----------------------------|---------------3---3---2---0--|
|----------------------------|------------------------------| |----------------------------|----------------x3fb3p1----3--| |----------------------------|---------------------------2--| |----------------------------|--2------------------------2--| |---2------------------------|--2------------------------0--| |---0---0-----0--0-------0---|--0---------------------------|
|---------------------|-----------------------------2--| |----3----------------|--3--------------------------3--| |----2----------------|--2--------2--4p2-----2------0--| |----2----------------|--2---2--4---------4---------2--| |----0----------------|--0-----------------------------| |---------------------|--------------------------------|
|----------2----|-------------------------------| |----------3----|-------------------------------| |----------0----|--------------2-h-4-p-2----2---| |----------2----|-----2-h-4--------------4------| |---------------|-------------------------------| |---------------|-------------------------------|
|----------------------|------2------------------------| |----------------------|------3------------------------| |----------------------|------0------------------------| |----------------------|------2------------------------| |--------------0-------|-------------------------------| |-------3b--------3b---|--0------------3b---0---3b-----|
|----------2------------------|------2-----------------------| |----------3------------------|--------5p2-------------------| |----------0------------------|---4fb-----4p2--4p2---2---x---| |----------2------------------|--------------4-----4-------x-| |----0------------------------|------------------------------| |--------------3b-----0--3b---|------------------------------|
|---5h8-5--5p0--10--10fb--8--|------8-----------------------| |----------------------------|--10--------------------------| |----------------------------|--------------------14-16-----| |----------------------------|-----------14/16----------16--| |----------------------------|------------------------------| |----------------------------|------------------------------|
|----------------------------|------------------------------| |----------------------------|------------------------------| |---12-h14----------14-16-14-|--16fb---------------14-16----| |------------12h16-----------|---------14-h16------------16-| |----------------------------|------------------------------| |----------------------------|------------------------------|
|----------------5-----------|------------------------------| |------------------5fb-------|---(5)-3---3------------------| |-14-------------------------|---------x--------------------| |-----16/--------------------|------------------------------| |----------------------------|------------------------------| |----------------------------|------------------------------|
[ ................. repeat ] |----------------------------|------------------------------| |----------------------------|------------------------------| |-2p0-02p0-0-----------------|---2p0-0-----------------8----| |----4----4--2p0---0-2p0--0--|---------2p0---0-0------------| |----------------4------4----|-------------4----------------| |----------------------------|------------------------------|
|------------------------15--------|------------------------| |-------13--15--15fb-------15fb15--|---------------------13-| |---14-----------------------------|------------------14----| |----------------------------------|------------------------| |----------------------------------|------------------------| |----------------------------------|------------------------|
|--------13--14--15----------|------------------------------| |--15fb--------------15fb----|----15---13--------13-(13)----| |----------------------------|--------------14--------------| |----------------------------|------------------------------| |----------------------------|------------------------------| |----------------------------|------------------------------|
|----------------------------|------------------------------| |----------------------------|------------------------------| |------------------2---------|--------------------4p2-------| |-2--2--------2-4-----4p2----|--------------2-4p2------4p2--| |-0--0---3h4-----------------|---0--0--3h4------------------| |-0--------------------------|------------------------------|
[this line 2 times] |----------------------------|------------------------------| |----------------------------|------------------------------| |------------------4p2-------|-------------------4p2--------| |------------2-4p2------4p2--|-------------2-4p2------4p2---| |-0--0---3h4-----------------|-0--0---3h4-------------------| |----------------------------|------------------------------|
Sing out har-e har-e, ooh and dance the hootchie koo...
[repeat 3 times] |----2----2-2----2---2-------|----3-------3------5--3-------| |----3--3-3-3----3-3----3----|-3--3-------3------7--5-0-----| |-----------------------2----|-2------2------0---7----------| |--0-------------------------|--------0------0---0----------| |----------------------------|------------------------------| |----------------------------|------------------------------|
[this line 2 times] |-----2-----2------2---------|-----3----------5---3---------| |--3--3--3--3------3-3---3---|--3--3-3--------5---5---0-----| |--2-----2-----------2---2---|--2----2--------7-------------| |--0---------------------0---|--0---------------------------| |----------------------------|------------------------------| |----------------------------|------------------------------|
|----2-----2-----2-----------|------3-----------0----5------| |--3-3-3---3-----3---3--3----|-3----3--3--------8----7------| |--2---2-------------2--2----|-2-------2--------7----6------| |--0--------------------0----|-0----------------------------| |----------------------------|------------------------------| |----------------------------|------------------------------|
|---8----8------8----8-------|--8----8----8----8-----|-------| |---10---10-----10---10------|--10---10---10---10----|--10---| |---9----9------9----9-------|--9----9----9----9-----|--10---| |---0----0------0----0-------|--0----0----0----0-----|--0----| |----------------------------|-----------------------|-------| |----------------------------|-----------------------|-------|
END fb:full bend /: slide h: hammer on p: pull of b: bend r: release (xb This tab was realised for two reasons: 1. Im a dream Theater fan! 2. Im a led zeppelin fan! And dont forget. Keep dancing the hoootchie koo.!!!!
Tap to rate this tab
 
# A B C D E F G H I J K L M N O P Q R S T U V W X Y Z