Dream Theater - Bombay Vindaloo tab

Song: bombay vindaloo
By: dream theater
Tabbed by: bighabit69@iamwasted.com (silkmoth)

If anyone wants to help tab out the Liquid tension experiment album please lemme know.
Im currently working on: Hourglass, Another diminsion and, When the water breaks.


Gtr I|-------7---------|---------------------------------||----------9------|-9-10----9-10----9-10----9-10----||------------10-9-|---13-10---13-10---13-10---13-10-||-----------------|---------------------------------||-----------------|---------------------------------||-----------------|---------------------------------|
|---------7-5-4-----7-5-4---7-5-4---|-7-5-4---7-5-4---7-5-4---7-5-4---||-10--9---------6-5-------5-----6-5-|-----6-5-----6-5-----6-5-----6-5-||----10-9---------------------------|---------------------------------||-----------------------------------|---------------------------------||-----------------------------------|---------------------------------||-----------------------------------|---------------------------------|
|-4-5--8-10-12-10----12----12-10--8-12-10----10-||-----12-------13-12-15-13-12----12----13-12-13-||-----------------------------------------------||-----------------------------------------------||-----------------------------------------------||-----------------------------------------------|
|-----------8-10-12-10----13-12-10----12-10-8-7-||-12-10-10-12-------13-12-------13-12-----------||----13-----------------------------------------||-----------------------------------------------||-----------------------------------------------||-----------------------------------------------|
|-10-12-10----13-12-10-8-12-10-8-7-10-8--7-7-||-------13-12---------------------------10---||--------------------------------------------||--------------------------------------------||--------------------------------------------||--------------------------------------------|
|-5-4---5-7-10-12-10------------------------||-----5-9---13----13-12----12-10---------10-||--------------------14-13----13-10-9-10-13-||-------------------------------------------||-------------------------------------------||-------------------------------------------|
|-----8-12-10----------12-10-8-7-5-(5)--||-10-12-15-13-12-12-13-15---------------||-------------14------------------------||---------------------------------------||---------------------------------------||---------------------------------------|
|-16-----16-(16)-----16-17-|-19--20--20--19-20-----||--------------------------|----------------24-22--||--------------------------|-----------------------||-----18----------18-------|-----------------------||--------------------------|-----------------------||--------------------------|-----------------------|
|-----24-------------19-17-16-||-21--------------21-22----18-||--------21-(21)--------------||-----------------------------||-----------------------------||-----------------------------|
|----16-19-17-------16-19-17-16----17-19-------17--||-17-18-22-21-18-18----22----18-18-21-22-21-18-21--||----------------21-------------21-------22-21-----||--------------------------------------------------||--------------------------------------------------||--------------------------------------------------|
|-19-20-19-19-19-17-19-19-17-19-19-17-|-19-20-19-19-20-19-17-19-22-------22-||-------22----------------------------|----------------------------22-24----||-------------------------------------|-------------------------------------||-------------------------------------|-------------------------------------||-------------------------------------|-------------------------------------||-------------------------------------|-------------------------------------|
|-------22-------22--------------------||-22-24----22-24----22-24-21-19-21-----||-------------------------------22-21--||--------------------------------------||--------------------------------------||--------------------------------------|
|--------------------------------------------||--22-21-------18-17-------17-15----12--10---||-----22-21-19----19-17-17-19-17-14-----12-9-||-----------------------21-------17----------||--------------------------------------------||--------------------------------------------|
|------7-----------------12----------12-------||---5-10--------11-12-12-15----12-12-15----10-||-7-----------9----15-------14-15----------12-||-9------8-9-12-------------14----------12----||---------------------------------------------||---------------------------------------------|
|----10-12----------10---7--7-10------||-11-12-------12-11-12-----11----10---||----------14----------9-------9-12---||----------14-------------------------||-------------------------------------||-------------------------------------|
Tap to rate this tab
 
# A B C D E F G H I J K L M N O P Q R S T U V W X Y Z