Dream Theater – Great Debate tab

Tunning: Standard
Tabbed by: "Iron" Pete
*Exported from PowerTab*
Listen to record for rhythm

Q=164
                                                 N.C.(E5)
 7/4
  Gtr I

|------------------|------------------|------------------||------------------|------------------|------------------||------------------|------------------|------------------||------------------|------------------|------------------||------------------|------------------|------------------||------------------|------------------|----------0-------|
|---------------------|-------------------||---------------------|-------------------||---------------------|-------------------||---------------------|-------------------||---------------------|-------------------||-(0)--------(0)------|-(0)--------(0)----|
|---------------------|----------------|------------------||---------------------|----------------|------------------||---------------------|----------------|------------------||---------------------|----------------|----------2-------||---------------------|----------------|------------------||-(0)--------(0)------|----------------|------------------|
|----------------------|--------------------|-------------------||----------------------|--------------------|-------------------||----------------------|--------------------|-------------------||-(2)--------(2)----3--|-(3)--------0-------|-(0)--------(0)----||----------------------|--------------------|-------------------||----------------------|--------------------|-------------------|
>|----------------------|--------------------------||----------------------|--------------------------||--------1----(1)------|-(1)------(1)----(1)------||-(0)------------------|--------------------------||----------------------|--------------------------||----------------------|--------------------------|
|------------------|-------------------|-------------------||------------------|-------------------|-------------------||------------------|-4--------(4)------|-(4)--------(4)----||------------------|-------------------|-------------------||------------------|-------------------|-------------------||------------------|-------------------|-------------------|
|---------------------|--------------------||---------------------|------------7-------||-6-------7--(7)------|-(7)----------------||---------------------|--------------------||---------------------|--------------------||---------------------|--------------------|
>|-------------------------------|----------------------||-9--------(9)-(9)----(9)-------|-(9)----(9)----(9)----||-------------------------------|----------------------||-------------------------------|----------------------||-------------------------------|----------------------||-------------------------------|----------------------|
|------------------|-------------------|-------------------||------------------|-8--------(8)------|-7--------(7)------||------------------|-------------------|-------------------||------------------|-------------------|-------------------||------------------|-------------------|-------------------||------------------|-------------------|-------------------|
|-------------------|--------------------------||-9--------(9)------|--------------------------||-------------------|-7----(7)---6-(6)--(6)----||-------------------|--------------------------||-------------------|--------------------------||-------------------|--------------------------|
|-----------------|-------------------|-------------------|----------------||-----------------|-------------------|-------------------|----------------||5-------(5)------|-2--------(2)------|-4--------(4)------|-1--------(1)---||-----------------|-------------------|-------------------|----------------||-----------------|-------------------|-------------------|----------------||-----------------|-------------------|-------------------|----------------|
|-----------------|-------------------|-------------------|----------------||8-------(8)------|-7--------(7)------|-9--------(9)------|----------------||-----------------|-------------------|-------------------|-7--------6-----||-----------------|-------------------|-------------------|----------------||-----------------|-------------------|-------------------|----------------||-----------------|-------------------|-------------------|----------------|
|-----------------------|---------------------||-----------------------|---------------------||-5--------(5)---5-(5)--|-(5)----2----9-------||-----------------------|---------------------||-----------------------|---------------------||-----------------------|---------------------|
|-------------------|-----------------||-------------------|-----------------||-4--------(4)------|-1--------(1)----||-------------------|-----------------||-------------------|-----------------||-------------------|-----------------|
E5 Gtr I 4x||--0-------------(0)-0-0-|-0--------(0)-------||||o-0-------------(0)-0-0-|-0--------(0)------o||||--9-------------(9)-----|-9--------(9)-------||||--9-------------(9)-----|-9--------(9)-------||||o-7-------------(7)-----|-7--------(7)------o||||--0-------------(0)-----|-0--------(0)-------||
|-||--0--------------------------(0)-0-0----||-||o-0--------------------------(0)-0-0----||-||--9--------------------------(9)--------||-||--9--------------------------(9)--------||-||o-7--------------------------(7)--------||-||--0--------------------------(0)--------|
|
| Gtr III|-||----------------------------------------||-||o---------------------------------------||-||----------------------------------------||-||----------------------------------------||-||o--------/7----------------7-----7------||-||--0---0--------0-(0)-0-(0)----0---------|
N.C. 6/4 Gtrs II, III 4x|-0-------------(0)--------------||-||--------------------------------|||-0-------------(0)-------------o||-||o------------------------------o|||-9-------------(9)--------------||-||--------------------------------|||-9-------------(9)--------------||-||--------------------------------|||-7-------------(7)-------------o||-||o-7-7-5-7-5-8-7-5-7-7-5-8-7-5--o|||-0-------------(0)--------------||-||--------------------------------||
| 4x 4x|--------------------------------||-||--------------------------------|||-------------------------------o||-||o------------------------------o|||--------------------------------||-||--------------------------------|||--------------------------------||-||--------------------------------|||-------/7----------------7---7-o||-||o------------------------------o|||-0--0--------0-(0)-0-(0)---0----||-||--------------------------------||
Verse 7/4 Gtr III PM---------------------------------------------------------------------|
4x||----------------------------------|------------------------------------|||o---------------------------------|---------------------------------o--|||----------------------------------|------------------------------------|||----------------------------------|------------------------------------|||o-7-7-5-7-5-8-7-5-7-7-5-8-7-5-7-5-|-7-7-5-7-5-9-7-5-7-7-5-9-7-5-7-5-o--|||----------------------------------|------------------------------------|
Gtr III PM------------------------------------------------------------------|
4x||----------------------------------|-------------------------------------||||o---------------------------------|------------------------------------o||||9-9-7-9-7-10-9-7-9-9-7-10-9-7-9-7-|-9-9-7-9-7-11-9-7-9-9-7-11-9-7-9-7---||||----------------------------------|-------------------------------------||||o---------------------------------|------------------------------------o||||----------------------------------|-------------------------------------||
| | Gtr II | PM------------------------------------------------------------------|
| 4x||----------------------------------|-------------------------------------||||o---------------------------------|------------------------------------o||||----------------------------------|-------------------------------------||||----------------------------------|-------------------------------------||||o7-7-5-7-5-8-7-5-7-7-5--8-7-5-7-5-|-7-7-5-7-5--9-7-5-7-7-5--9-7-5-7-5--o||||----------------------------------|-------------------------------------||
Pre-Chorus Asus2 (A7) N.C. E5/B 4/4 Gtrs II, III
||--------0------|-----0-----0-0-0-0-|-------0------|-----0-----0--0--|||o-------0------|-----0-----8-8-8-8-|-------0------|-----0-----0--0--|||--------9------|-----7-----9-9-9-9-|-------9------|-----9-----9--9--|||--------7------|-----9-----7-7-7-7-|-------7------|-----7-----9--9--|||o-0--0-------0-|-(0)---0-0---------|-0--0-------0-|-(0)---0-0-------|||---------------|-------------------|--------------|-----------------|
E 7/4
|-0----------0-(0)---------------|-0----------0-(0)----------------|||-0----------0-(0)---------------|-0----------0-(0)---------------o|||-9----------9-(9)---------------|-9----------9-(9)----------------|||-6----------6-(6)---------------|-6----------6-(6)----------------|||--------------------------------|--------------------------------o|||----0--0--0-------0-(0)-0-(0)-0-|----0--0--0-------0-(0)-0-(0)-0--||
Chorus D5/A Dsus2 A5 Asus2Ams4 4/4
|--------------|-0-------------|---------------|-------------||-3--------3---|------3--------|---------------|-3-----5-----||-2--------2---|-----------x-x-|-2-------------|-4-----5-----||-0--------0---|-----------x-x-|-2-------------|-2-----2-----||-0-------(0)--|-----------x-x-|-0---------(0)-|-0----(0)----||--------------|---------------|---------------|-------------|
Em F5 F
|----0--(0)-----|------0--------|------------|--------------||----0--(0)-----|------0--------|------------|--------------||----0--(0)-----|---------------|------------|-2------------||-2-------------|---------------|----3-------|------3----x--||-2-------------|-----------x-x-|-3--3-------|-----------x--||-0-----------0-|-0---------x-x-|-1--1-------|-----------x--|
D5/A Dsus2 Am Asus2Ams4
|------------|-0---------|------------|-----------||-3--3-------|------3----|----1-------|-3----5----||-2--2-------|-----------|-2--2-------|-4----5----||-0--0-------|-----------|-2--2-------|-2----2----||-0--0-------|-----------|-0--0-------|-0----0----||------------|-----------|------------|-----------|
G5 Gsus2 F5 Fsus2
|-3-----------|-------------|---------------|-------------||-3-----------|-------------|---------------|-------------||-0---------0-|-2-----------|-------------0-|-(0)---------||-0---------0-|-0---------x-|----3--(3)-----|--------3----||-------------|-----------x-|-3--3--(3)-----|-------------||-3-----------|-------------|-1--1--(1)-----|-------------|
Verse N.C. 13/8 PM PM PM PM----------------------|
4x 8x||-----------------------------||-||-----------------------------||||o---------------------------o||-||o---------------------------o||||-----------------------------||-||-----------------------------||||-----------------------------||-||-----------------------------||||o-7-5---7-5---7-5---7-5-7-8-o||-||o-7-5---7-5---7-5---7-5-7-8-o||||------0-----0-----0----------||-||------0-----0-----0----------||
E5 C5/G D5/A F5 G5 E5 C5/G D5/A Fsus2Gsus2 4/4 3x|---------------|---------------||------------------|-------------------|||---------------|---------------||o-----------------|------------------o|||----5-(5)-5-7--|-(7)-7---------||-------5-(5)-5-7--|-(7)-7-------------|||2-2-5-(5)-5-7--|-(7)-7--3--3S5-||--2--2-5-(5)-5-7--|-(7)-7----5--5S7---|||2-2-3-(3)-3-5--|-(5)-5--3--3S5-||o-2--2-3-(3)-3-5--|-(5)-5----3--3S5--o|||0-0-3-(3)-3-5--|-(5)-5--1--1S3-||--0--0-3-(3)-3-5--|-(5)-5----1--1S3---||
E5D5 F5 E5 E5D5 F5 E5 E5D5 F5 E5 E5D5 F5 E5 PM PM PM PM PM PM
|----------------|------------------|------------------|------------------||----------------|------------------|------------------|------------------||-9s7---10s9--9s7|---10s9-----------|-9s7---10s9---9s7-|---10s9-----------||-9s7---10s9--9s7|---10s9---x-x-x-x-|-9s7---10s9---9s7-|---10s9---x-x-x-x-||-7s5----8s7--7s5|----8s7---x-x-x-x-|-7s5----8s7---7s5-|----8s7---x-x-x-x-||-----0------0---|-0------x-x-x-x-x-|-----0------0-----|-0------x-x-x-x-x-|
E5D5 F5 E5 E5D5 F5 E5 E5D5 F5 E5 E5D5 F5 E5 E5 PM PM PM PM PM PM PM
|------------------|---------------|------------------|-----------------||------------------|---------------|------------------|-----------------||-9s7---10s9---9s7-|---10s9--------|-9s7---10s9---9s7-|---10s9---9------||-9s7---10s9---9s7-|---10s9--------|-9s7---10s9---9s7-|---10s9---9------||-7s5----8s7---7s5-|----8s7--------|-7s5----8s7---7s5-|----8s7---7------||-----0------0-----|-0-------------|-----0------0-----|-0------0--------|
N.C. E5 C5 D5 PM------------------------------| PM--| PM--| PM| 8x||------------------|------------------||-||-------------------------|||o-----------------|-----------------o||-||o------------------------|||------------------|------------------||-||----------5-------7------|||------------------|------------------||-||--2-------5-------7------|||o-7-5---7-5---7-5-|---7-5---7-5-7-8-o||-||o-2-------3-3-3-3-5-5-5--|||------0-----0-----|-0-----0----------||-||--0-0-0-0----------------|
Fsus2 Gsus2 E5D5 F5 E5 E5D5 PM| PM--------| PM PM
|----------------------||------------------||---------------------o||------------------||-----7----------------||-9s7---10s9---9s7-||-----7-----5-----5S7--||-9s7---10s9---9s7-||-5-5-5-----3-----3S5-o||-7s5----8s7---7s5-||-------0-0-1-1-1-1S3--||-----0------0-----|
F5 E5 E5D5 F5 E5 E5D5 PM PM PM
|------------------|------------------||------------------|------------------||---10s9-----------|-9s7---10s9---9s7-||---10s9---x-x-x-x-|-9s7---10s9---9s7-||----8s7---x-x-x-x-|-7s5----8s7---7s5-||-0------x-x-x-x-x-|-----0------0-----|
F5 E5 E5D5 F5 E5 E5D5 F5 E5 PM PM PM PM
|---------------|------------------|---------------||---------------|------------------|---------------||---10s9--------|-9s7---10s9---9s7-|---10s9--------||---10s9--------|-9s7---10s9---9s7-|---10s9--------||----8s7--------|-7s5----8s7---7s5-|----8s7--------||-0-------------|-----0------0-----|-0-------------|
E5D5 F5 E5 E5D5 F5 E5 E5 < PM PM PM PM
|------------------|--------------------||------------------|--------------------||-9s7---10s9---9s7-|---10s9---9---(9)---||-9s7---10s9---9s7-|---10s9---9---(9)---||-7s5----8s7---7s5-|----8s7---7---(7)---||-----0------0-----|-0------0-----------|
Pre-Chorus A5 PM| PM|
||--------------------|---------------------|||o-------------------|---------------------|||--2-2-------2---2-2-|---------------------|||--2-2-------2---2-2-|---------2-4-5-4-2---|||o-0-0---0-0-0---0-0-|---0-0-3-----------3-|||--------------------|---------------------|
PM| PM|
|-------------------|------------------------||-------------------|------------------------||-2-2-------2---2-2-|------------------------||-2-2-------2---2-2-|---------7-9-10-9-7-----||-0-0---0-0-0---0-0-|---0-0-7------------7---||-------------------|------------------------|
E5 PM| PM|
|-------------------|-------------------||-------------------|-------------------||-------------------|-----------1-2-1---||-2-2-------2---2-2-|---------0-------2-||-2-2-------2---2-2-|-------2-----------||-0-0---0-0-0---0-0-|---0-0-------------|
PM| PM|
|-------------------|-----------------------------|||-------------------|----------------------------o|||-------------------|-----------1-2-1-------------|||-2-2-------2---2-2-|---------0-------2-0---------|||-2-2-------2---2-2-|-------2-------------2-0----o|||-0-0---0-0-0---0-0-|---0-0-------------------4---||
Chorus D5/A Dsus2 A5 Asus2suAm
|----------|-0-------------|----------|---------------||-3--------|------3--------|----------|--3------5-----||-2--------|-----------x-x-|-2--------|--4------5-----||-0--------|-----------x-x-|-2--------|--2------2-----||-0--------|-----------x-x-|-0--------|-(0)----(0)----||----------|---------------|----------|---------------|
Em F5 F
|----0-------|----0--(0)-----|----------|-------------||----0-------|----0--(0)-----|----------|-------------||-0----------|---------------|----------|-2-----------||-2----------|---------------|-3--------|------3------||-2----------|---------------|-3--------|-----------x-||-0----------|-0-----------0-|-1--------|-----------x-|
D5/A Dsus2 A5 Asus2suAm
|------------|-0---------|------------|---------------||----3-------|------3----|----1-------|--3------5-----||----2-------|-----------|-2--2-------|--4------5-----||-0--0-------|-----------|-2--2-------|--2------2-----||-0--0-------|-----------|-0--0-------|-(0)----(0)----||------------|-----------|------------|---------------|
G5 Gsus2 F5 Fsus2
|-3-----------|-------------|----------------|---------------||-3-----------|-------------|----------------|---------------||-0-----------|-2-----------|--------------0-|-(0)-----------||-0---------0-|-0-----------|-3-3----(3)-----|--------3------||-------------|-------------|-3-3----(3)-----|-------------0-||-3-----------|-----------0-|-1-1----(1)-----|---------------|
A5 Asus2Am D5 (D6) (D7)
|-----------|-----------|----------|-----------||-----------|-----------|----------|-----------||------2----|-4----5----|-2--------|-4----5----||-2----2----|-2----2----|-0--------|-0----0----||-0----0----|-0----0----|----------|-----------||-----------|-----------|----------|-----------|
F5 Fsus2 F F5
|----------|---------------|----------|------||----------|---------------|-1--------|------||----------|-0-------------|-2--------|------||-3--------|-3-------------|-3--------|-3----||-3--------|-3---------x-x-|-3--------|-3----||-1--------|-1---------x-x-|-1--------|-1----|
Interlude Q.=124 D5 Bbmaj7/D Db5 D5 (Fsus2) (C/E) 12/8 Gtr II
||----------------|-------------------|---------------|------------------||||o-3-------------|--3--------3-------|-3-------------|-----------------o||||--2-------------|--3--------1-------|-2-------------|------0-----------||||--0-------------|--0--------0-------|-0-------------|------------------||||o-0-------------|-(0)------(0)------|-0-------------|-3---------------o||||----------------|-------------------|---------------|-1---------0------||
|
| Gtr IV (Drop D Tuning)||----------------|-------------------|---------------|------------------||||o-3-------------|-(3)---------------|-3-------------|-----------------o||||--2-------------|-(2)---------------|-2-------------|------------------||||--0-------------|-(0)---------------|-0-------------|------------------||||o-0-------------|-(0)---------------|-0-------------|-----------------o||||--0-------------|-(0)---------------|-0-------------|-3---------2------||
N.C. D5 PM--------------------|
8x||---------------------------||---------------|--------|||o-------------------------o||-3-------------|-(3)----|||---------------------------||-2-------------|-(2)----|||--0-3-5-0-3-5-0-5-6-0-3-5--||-0-------------|-(0)----|||o-------------------------o||-0-------------|-(0)----|||---------------------------||---------------|--------|
|
| PM---------------------------------------------------| 8x||---------------------------||---------------|----------|||o-------------------------o||---------------|----------|||---------------------------||---------------|----------|||---------------------------||-0-------------|-(0)------|||o-------------------------o||-0-------------|-(0)------|||--0-3-5-0-3-5-0-5-6-0-3-5--||-0-------------|-(0)------|
>
|--------------|----------------|----------------|----------------|--------||-(3)----------|-(3)------------|-(3)------------|-(3)------------|--------||-(2)----------|-(2)------------|-(2)------------|-(2)------------|--------||-(0)----------|-(0)------------|-(0)------------|-(0)------------|--------||-(0)----------|-(0)------------|-(0)------------|-(0)------------|--------||--------------|----------------|----------------|----------------|--------|
|
| >|--------------|----------------|----------------|----------------|--------||--------------|----------------|----------------|----------------|--------||--------------|----------------|----------------|----------------|--------||-(0)----------|-(0)------------|-(0)------------|-(0)------------|--------||-(0)----------|-(0)------------|-(0)------------|-(0)------------|--------||-(0)----------|-(0)------------|-(0)------------|-(0)------------|--------|
N.C. Gtr I < <
||-------------------|------------------|||o------------------|------------------|||-------------------|------------------|||--7-------(7)------|-8-------(8)------|||o------------------|------------------|||-------------------|------------------|
< < <
|------------------|------------------|----------------||------------------|------------------|----------------||------------------|------------------|----------------||-6-------(6)------|-7-------(7)------|-3-------(3)----||------------------|------------------|----------------||------------------|------------------|----------------|
1. < < <
|-----------------------|------------------|-----------------|||-----------------------|------------------|----------------o|||-----------------------|------------------|-----------------|||-2----(2)--------------|------------------|-----------------|||------------3----(3)---|-5-------(5)------|-(5)------------o|||-----------------------|------------------|-----------------||
2. < < <
|-----------------------|------------------|--------||-----------------------|------------------|--------||------------5----(5)---|-7-------(7)------|-(7)----||-2----(2)--------------|------------------|--------||-----------------------|------------------|--------||-----------------------|------------------|--------|
D5 Bbmaj7/D (Db5) D5 Gtr II
||----------------|---------------|---------------|-------|||o-3-------------|-3-------------|-3-------------|-3-----|||--2-------------|-3-------------|-1-------------|-2-----|||--0-------------|-0-------------|-0-------------|-0-----|||o---------------|---------------|---------------|-------|||----------------|---------------|---------------|-------|
|
| Gtr IV||----------------|---------------|---------------|-------|||o-3-------------|-3-------------|-3-------------|-3-----|||--2-------------|-3-------------|-1-------------|-2-----|||--0-------------|-0-------------|-0-------------|-0-----|||o-0-------------|-0-------------|-0-------------|-0-----|||--0-------------|-0-------------|-0-------------|-0-----|
F5 (C/E) C5
|---------------|-----------------||---------------|-----------------||---------------|---------5-------||-3-------------|---------5-------||-3-------------|-3-------3-------||-1-------------|-0---------------|
| |
|---------------|-----------------||---------------|-----------------||---------------|---------5-------||-3-------------|---------5-------||-3-------------|-3-------3-------||-3-------------|-2---------------|
N.C. PM----------------------------------------------|
|-------------------------|-----------------------------|||-------------------------|----------------------------o|||-------------------------|-----------------------------|||-0-3-5-0-3-5-0-5-6-0-3-5-|-0-3-5-0-3-5-0-5-6-0-3-5-----|||-------------------------|----------------------------o|||-------------------------|-----------------------------||
|
| PM-------------------------------------------------------||-------------------------|--------------------------------||-------------------------|----------------------------o---||-------------------------|--------------------------------||-------------------------|--------------------------------||-------------------------|----------------------------o---||-0-3-5-0-3-5-0-5-6-0-3-5-|-0-3-5-0-3-5-0-5-6-0-3-5--------|
Breakdown 3/2 PM----------------------------------------------------|
||---------------------------||-||---------------------------||||o-------------------------o||-||o-------------------------o||||---------------------------||-||---------------------------||||--0-3-5-0-3-5-0-5-6-0-3-5--||-||--0-3-5-0-3-5-0-5-6-0-3-5--||||o-------------------------o||-||o-------------------------o||||---------------------------||-||---------------------------||
|
| PM----------------------------------------------------------|||---------------------------||-||------------------------------|||o-------------------------o||-||o-------------------------o---|||---------------------------||-||------------------------------|||---------------------------||-||------------------------------|||o-------------------------o||-||o-------------------------o---|||--0-3-5-0-3-5-0-5-6-0-3-5--||-||--0-3-5-0-3-5-0-5-6-0-3-5-----|
6/4
||---------------------------||-||---------------------------||||o-------------------------o||-||o-------------------------o||||---------------------------||-||---------------------------||||--0-3-5-0-3-5-0-5-6-0-3-5--||-||--0-3-5-0-3-5-0-5-6-0-3-5--||||o-------------------------o||-||o-------------------------o||||---------------------------||-||---------------------------||
| |
||---------------------------||-||---------------------------||||o-------------------------o||-||o-------------------------o||||---------------------------||-||---------------------------||||---------------------------||-||---------------------------||||o-------------------------o||-||o-------------------------o||||--0-3-5-0-3-5-0-5-6-0-3-5--||-||--0-3-5-0-3-5-0-5-6-0-3-5--||
Bridge Gtrs II, III PM--------| PM--------------------| PM---------
|-------------------------|-------------------------||-------------------------|-------------------------||-------------7-----------|-------------7-----------||-------------------------|-------------------------||-5-5---5---5---5---5---5-|---5---5---5---5---5---5-||-------------------------|-------------------------|
-----------| PM------| PM------------------|
|-------------------------|----------------------------||-------------------------|----------------------------||-------------7-----------|----------------------------||-------------------------|-------------2--------------||-5-5---5---5---5---5---5-|----------------------------||-------------------------|---1---1---1---0---0---0----|
PM--------| PM------| PM---------------------
|-------------------------|-------------------------||-------------------------|-------------------------||-------------5-----------|-------------------------||-------------------------|-------------7-----------||-3-3---3---3---3---3---3-|-------------------------||-------------------------|---3---3---3---5---5---5-|
-----------| PM--------------------| PM------|
|-------------------------|----------------------------||-------------------------|----------------------------||-------------7-----------|-7-----------7--------------||-------------------------|----------------------------||-5-5---5---5---5---5---5-|---5---5---5---5---5---5----||-------------------------|----------------------------|
D5 Bb/D Db5 Gtr I
|--------------------------|---------------------------||-3------------------------|-3------------3------------||-2------------------------|-3------------1------------||-0------------------------|-0------------0------------||--------------------------|---------------------------||--------------------------|---------------------------|
|
| Gtrs II, III| PM---------| PM---------------------| PM----------||--------------------------|-----------------------------||--------------------------|-----------------------------||--------------7-----------|--------------7--------------||--------------------------|-----------------------------||-5--5---5---5---5---5---5-|----5---5---5----5---5---5---||--------------------------|-----------------------------|
D5 Fsus2 C/E
|--------------------------|------------------------------||-3------------------------|-1------------1---------------||-2------------------------|-0------------0---------------||-0------------------------|-3------------2---------------||--------------------------|------------------------------||--------------------------|------------------------------|
|
|------------| PM------| PM--------------------------||--------------------------|--------------------------------||--------------------------|--------------------------------||--------------7-----------|--------------------------------||--------------------------|--------------2-----------------||-5--5---5---5---5---5---5-|--------------------------------||--------------------------|----1---1---1----0---0---0------|
C5 G5 A5
|--------------------------|---------------------------||--------------------------|---------------------------||-5------------------------|-0------------2------------||-5------------------------|-0------------2------------||-3------------------------|--------------0------------||--------------------------|-3-------------------------|
|
| PM---------| PM------| PM-----------------------||--------------------------|-----------------------------||--------------------------|-----------------------------||--------------5-----------|-----------------------------||--------------------------|--------------7--------------||-3--3---3---3---3---3---3-|-----------------------------||--------------------------|----3---3---3----5---5---5---|
D5
|--------------------------|-----------------------------||-3------------------------|-3---------------------------||-2------------------------|-2---------------------------||-0------------------------|-0---------------------------||--------------------------|-----------------------------||--------------------------|-----------------------------|
|
|------------| PM---------------------| PM-------------||--------------------------|-------------------------------||--------------------------|-------------------------------||--------------7-----------|-7------------7----------------||--------------------------|-------------------------------||-5--5---5---5---5---5---5-|----5---5---5---5---5---5------||--------------------------|-------------------------------|
Keyboard Solo N.C. 12/8 Gtr III
||--------------------------|||o-------------------------|||--------------------------|||--------------------------|||o---7-5-7-5-------5-----5-|||--0---------0-6-7---5-3---|
|-------------------------|-------------------------||-------------------------|-------------------------||-------------------------|-------------------------||-----------------0-2-----|-------------------------||---7-5-7-5---5-----------|---7-5-7-5-------5-----5-||-0---------5---3-----3-5-|-0---------0-6-7---5-3---|
4x|--------------------------|||-------------------------o|||--------------------------|||--------------------------|||---7-5-7-5---5---5-------o|||-0---------5---3---0-3-2--||
6/4 Gtr IIGtr Gtr III Gtr II Gtr III Gtr II Gtrs II, III PM----------------------------------------------|
|-------------------------|--------------------------||-------------------------|--------------------------||-------------------------|--------------------------||-------------------------|--------------------------||-------------7-----------|-------------7------------||-0-0---0---0---0---0---0-|---0---0---0---0---0---0--|
Guitar Solo Q=92 4/4 Gtr I ~~~~~~~ ~~~~~~~ a Q +S S +T T T T S E. +S S +T T T T
|---------------------------------------------||---------------------------------7-(7)h8p7p6-||-------------------------/6--(6)-------------||-11s4--(4)-4-(4)h5p4p3-4---------------------||---------------------------------------------||---------------------------------------------|
.5___/ |--3--| |----3----|
E E E E E S +S a +E. S T T T T T T T T|---------9h14-14-(14)h===17-(17)-13-14h15p14p13-14h15p14p13--||-7s10-10-----------------------------------------------------||-------------------------------------------------------------||-------------------------------------------------------------||-------------------------------------------------------------||-------------------------------------------------------------|
~~ T |--3--| |------6-------| |--3--| |-3-| |---5---|
Q +S S +S T T T T T T T T T T T T T T T T T T T T T T T T|-15--(15)-/15-(15)p14p13p12s9h10h11h12p11p10p9s7h9h10h12p10p9p8p7----------||---------------------------------------------------------------------------||---------------------------------------------------------------------------||---------------------------------------------------------------------------||---------------------------------------------------------------------------||---------------------------------------------------------------------------|
T T T T T |-----6-----| |----6-----| |-3-| |---5---| |---5----| |---5---| |-3--| |-3-|
T T T T T T T T T T T T T T T T T T T T T T T T T T T T T T T T T T T T T T T TT T|----------------------------------------------------------------------------------------------||10p9p8p7h8h9-12p10p9p8p7----------------------------------------------------------------------||------------------------10p9p8p7h8h9h11s9p7p6h7h9h12p9p7p6------------------------------------||----------------------------------------------------------9p7p5h7h12p9p7p5--------------------||-----------------------------------------------------------------9p7p5h7h12p9p7p5h10p7p5p4h5--||----------------------------------------------------------------------------------------------|
PM--| E. T T S S S S S S S S S S S S|----------------------------------------------------------14s||-------------------------------------------------------------||-------------------------------------4-7-6-----9-6s11h12-----||------------------------------------5------4h5---------------||9p7p5h7h12p9p7p5h10p7p5p4h5-4--4-4-4-------------------------||-------------------------------------------------------------|
~~~~~~~~~~~~|-19-14------------------14-15-14h15p14--14-15-14h15p14--14-15-14h15p14--||------15-14-----17b19r17--------------17--------------17--------------17||-----------16-14--------------------------------------------------------||------------------------------------------------------------------------||------------------------------------------------------------------------||------------------------------------------------------------------------|
|------6-------| |--------6--------| |----6-----|
Q S S S S S S S S a S S S S S S S S S S|14-15-14-----/24-19----------19-15----------17-12---------12-7-----||---------17---------20-19s15-------17-15s12-------13-12s8------8-7-||-------------------------------------------------------------------||-------------------------------------------------------------------||-------------------------------------------------------------------||-------------------------------------------------------------------|
~~~ E +S S S E +S S S S S S +E.|---------------------------------------------||---------------------------------------------||-9b11r(9)-7-9-[7]b9r(7)----------------------||------------------------9-7------------------||----------------------------7-5-[7]b9-(7)----||---------------------------------------------|
T T T T T T T T T T T T T T T T T T T T T T T T T T T T T T T T|------------------------------------------------------------------||------------------------------------------------------------------||-6-4-----6-4-----6-7-6-4-----6-4-----6-7-6-4-----6-7-6-4-7-9-7-6--||-----5-4-----5-4---------5-4-----5-4---------5-4------------------||------------------------------------------------------------------||------------------------------------------------------------------|
|----------------------------------------------------15-17-15-14||----------------------12-8---------------14-15-14-12-----------||11-12-11-9----11-9--------11-9-11-12-11-9----------------------||----------11-9----11-9-----------------------------------------||---------------------------------------------------------------||---------------------------------------------------------------|
S S S S S S S S S S S S S S S S|-------------------19----------------------------||-17----19----20----------17----------------------||----16-------------------------16----12----------||----------17----16----14-------------------16-14-||----------------------------------------14-------||----------------------------12----15-------------|
|------6-------| |------6-------| |------6-------| |------6------|
S S S S S S S S S S S S S S S S S S S S S S S S|----------------------------------------------------17-12-------19p14---||----------------------------------------17p12-------------------------0-||----------------------16-14-12----------------------------14-12---------||----16-14-12-------------------16-14-12-------14-12---------------------||-------------16-14-12---------------------------------------------------||-12---------------------------------------------------------------------|
~~~ E S S +S S S +S S S S S E. T T|-19b21==19r-19b21==(19)-19r-19b21r(19)-------22----21--19-21-||---------------------------------------17s19----19-----------||-------------------------------------------------------------||-------------------------------------------------------------||-------------------------------------------------------------||-------------------------------------------------------------|
|22-21-19-21-22-21-19-21-22-21-19-21-22-21/-17-19-21-19/-15-17-19-17/-14-15||--------------------------------------------------------------------------||--------------------------------------------------------------------------||--------------------------------------------------------------------------||--------------------------------------------------------------------------||--------------------------------------------------------------------------|
|17-15/-12-14/-15-14-----------------||-------------------17-15-14---------||--------------------------16-14-----||-------------------------------17-16||------------------------------------||------------------------------------|
~~~~~ |--3---| |--3--|
Q E +T T T T E +S S S S Q|------------------12-14-15-14b15r(14)p12-------15b17--||-----15b17==(15)r------------------------15-12--------||------------------------------------------------------||-14---------------------------------------------------||------------------------------------------------------||------------------------------------------------------|
|17b19r17p14-14----------14-10------/21-17----------------------||--------------15-14----------12-10--------19-17------22b24r22/-||-------------------16-13-----------------------19-18-----------||---------------------------------------------------------------||---------------------------------------------------------------||---------------------------------------------------------------|Now that's a solo
Guitar/Keyboard Harmony Gtr II |
-------------7---------------------------------||-------8-7-------10-8-7-----------------------||-----9-----7-9----------9-7-------------------||---9------------------------10---9-7----------||-7-----------------------------------10---8---||----------------------------------------------|
|
| Gtr V (Keyboards arranged for guitar)|---------------7----------------------------||-------8-7-------10-8-7---------------------||-----9-----7-9----------9-7-----------------||---9------------------------10---9-7--------||-7-----------------------------------10---8-||--------------------------------------------|
|
| Gtr III| PM-------------------------------------------||----------------------------------------------||----------------------------------------------||----------------------------------------------||----------------------------------------------||-------3-3-3-5-5--5-5-5-5---------------------||-0-0-0--------------------1----1---1----3-----|
|--------------12-10----15-14-------------------------||--------------------10-------15----------15----------||-----12----12-------------------14-12-11----14-11----||---9----10----------------------------------------12-||-7---------------------------------------------------||-----------------------------------------------------|
|
|--------------------10-------15----------------------||-----12----12-------------------14-------14----------||---9----10-------------------------14-12----14-12----||-7------------------------------------------------12-||-----------------------------------------------------|
|
|-------------------------------------------------------||-------------------------------------------------------||-------------------------------------------------------||-------------------------------------------------------||-------------------------------------------------------||---------3--3--3--5--5--5--5--5--5---------------------||-0-0--0-----------------------------1--1--1--1--1--3---|
|-----------------------------------------10-12---14-15------10------------||-----------8--7---------------10-12---13---------------13------10-13------||--------9--------7--9-11---12------------------------------------------12-||-----9--------------------------------------------------------------------||--7-----------------------------------------------------------------------||--------------------------------------------------------------------------|
|
|-----------------------------------------14-15---17-20------17------------||----------12------------------13-15---17---------------20------17-20------||-------12----14-11-12-14---16------------------------------------------17-||----14--------------------------------------------------------------------||-14-----------------------------------------------------------------------||--------------------------------------------------------------------------|
|
| PM------------------------------------------------------------------------||----------------------------------------------------------------------------||----------------------------------------------------------------------------||----------------------------------------------------------------------------||----------------------------------------------------------------------------||-----------3--3--3--5----5-----5----5-----5----5----------------------------||--0--0--0--------------------------------------------1----1-----1----3------|
|-12--7------------------------------------------------------------------||-------------12--7------------------------------------------------------||--------9--7---------------11--7----------------9-11---12-11------------||----------------------9--7-----------------------------------12---------||----------------------------------9--7--9---10--------------------12----||------------------------------------------------------------------------|
|
|-------------15-10------------------------------------------------------||-20-17---------------------15-------------------------------------------||-------16-14---------12-11----12---------------12-14---16-11------------||---------------------------------12--------------------------12---------||------------------------------------10-12---14--------------------12----||------------------------------------------------------------------------|
|
|------------------------------------------------------------------------||------------------------------------------------------------------------||------------------------------------------------------------------------||------------------------------------------------------------------------||-----------3--3----3-----5--5--5--5--5----5-----------------------------||--0--0--0---------------------------------------1----1-----1----3-------|
Keyboard Solo 3/8 4/4 Gtr V|----------------------|-------------------------------------------------||--------------12-13-15|17s15-13-12--------12----------------------------||-------9-11-12--------|------------14-12-14--14-12----------------------||9-10-12---------------|---------------------------12--10-12-14-12-------||----------------------|-----------------------------14-----------14-10--||----------------------|-------------------------------------------------|
|
| Gtrs II, III| PM----------------------------------||---------------|---------------------||---------------|---------------------||---------------|---------------------||----------2-4-5|---7-(7)-7---7-7--7--||-----2-3-5-----|0-0-------0-0---0----||0-2-3----------|---------------------|
|--------------------------------------------||--------------------------------15s22s20----||-----------------------------14-------------||----14-12-10-----------12-16----------------||-12----------14--10-12----------------------||--------------------------------------------|
|
|--------------------------------------------||--------------------------------------------||--------------------------------------------||--------------------------------------------||------------------------------5-----5--3-2--||--5-----5--3-(3)--3--2-----2----------------|
|-/24s22-20-19-----------19-------------------------------||--------------22--20-22----22-20-------------------------||---------------------------------19----17-19-21-19-------||------------------------------------21-------------21-17-||---------------------------------------------------------||---------------------------------------------------------|
|
|---------------------------------------------------------||---------------------------------------------------------||---------------------------------------------------------||------------7-(7)--7-----------7-----7-----------7-------||---0-----0------------0-----0-----------0----------------||---------------------------------------------------------|
|------------------------14-10----17-14----20-15-------------||---------------15-10---------10-------15-------18-----------||--21-19-17----------11---------11-------14-------17---------||19--------21-17-------12---------------------------17-15----||--------------------------------------------------------15--||----------------------------------------------------------15|
|
|--------------------||--------------------||--------------------||--------------------||---------------5-3-2||5--3-(3)-2-(2)------|
Gtrs II, III
||--------------------------------------|||o-------------------------------------|||--------4-5-4-------------------------|||------7-------7-3---------------------|||o-0-7-------------3-5-2---3-----2-3-5-|||------------------------3---1-5-------|
1. 2. 9/16 1/4 2/4 |----6----| |----6----| |-3-|
|-------------------|--------------||-------------------||-------------------|-------------o||-------------------||-------------------|-------4-5-7--||-------4-5-7-4-----||-------------4-----|-3-5-7--------||-3-5-7---------5---||-3-2-------7---5---|-------------o||-----------------7-||-----5-0-7-------5-|--------------||-------------------|
4/4
|---------------------------------------------------------||---------------------------------------------------------||------------------------------------------7-9-10-9-10-12-||---------------------------7-9-10-9-10-12----------------||--------------5-7-8-7-8-10-------------------------------||-5-7-8-7-8-10--------------------------------------------|
3/4
|-------------------10-12-13-12-13-15----------13-15-17--||-10-12-13-12-13-15-------------------13-15-17-----------||--------------------------------------------------------||--------------------------------------------------------||--------------------------------------------------------||--------------------------------------------------------|
(GOOD LUCK!) x12|t19p17p14p12||------------||------------||------------||------------||------------|
|
|t14p12p9p7||----------||----------||----------||----------||----------|
x2|t21p17p14p12-t19p17p14p12----------------t19p17p14p12||-------------------------t19p17p14p12(x3)------------||-----------------------------------------------------||-----------------------------------------------------||-----------------------------------------------------||-----------------------------------------------------|
|
|t16p12p9p7-t14p12p9p7--------------14p12p9p7||---------------------t14p12p9p7(x3)---------||--------------------------------------------||--------------------------------------------||--------------------------------------------||--------------------------------------------|
Outro (Hell yeah! You made it!) Q=164 E5 6/4 7/4 Gtrs II, III PM-------------------------|
S S E E E E E E S S E E E E 4x W. +E S S||------------------------------||-||--0--------------------------(0)-0-0-|||o----------------------------o||-||o-0--------------------------(0)-0-0-|||------------------------------||-||--9--------------------------(9)-----|||------------------------------||-||--9--------------------------(9)-----|||o7--7-5-7-5-8-7-5-7-7-5-8-7-5o||-||o-7--------------------------(7)-----|||------------------------------||-||--0--------------------------(0)-----|
|
| Gtr I| ~~~| W. 4x Q Q Q. E +E E +E E E E||------------------------------||-||-------------------------------------|||o----------------------------o||-||o------------------------------------|||------------------------------||-||-------------------------------------|||------------------------------||-||-------------------------------------|||o----------------------------o||-||o--------/7----------------7-----7---|||------------------------------||-||--0---0--------0-(0)-0-(0)----0------|
4x|-0--------------------------(0)-0-0--|||-0--------------------------(0)-0-0-o|||-9--------------------------(9)------|||-9--------------------------(9)------|||-7--------------------------(7)-----o|||-0--------------------------(0)------||
|
| 4x|-------------------------------------|||------------------------------------o|||-------------------------------------|||-------------------------------------|||--------/7----------------7-----7---o|||-0---0--------0-(0)-0-(0)----0-------||
1.,2.,3. 4. Gtrs II, III 4x||--0-------------(0)-0-0-|-0-------------(0)-0-0--||-0--------(0)----|||o-0-------------(0)-0-0-|-0-------------(0)-0-0-o||-0--------(0)----|||--9-------------(9)-----|-9-------------(9)------||-9--------(9)----|||--9-------------(9)-----|-9-------------(9)------||-9--------(9)----|||o-7-------------(7)-----|-7-------------(7)-----o||-7--------(7)----|||--0-------------(0)-----|-0-------------(0)------||-0--------(0)----|
Gtrs II, III >|-0--------(0)------|-(0)--------(0)------||-0--------(0)------|-(0)--------(0)------||-9--------(9)------|-(9)--------(9)------||-9--------(9)------|-(9)--------(9)------||-7--------(7)------|-(7)--------(7)------||-0--------(0)------|-(0)--------(0)------|
|
| Gtr I|-------------------|---------------------||-8--------(8)------|--7---------(7)------||-------------------|---------------------||-------------------|---------------------||-------------------|---------------------||-------------------|---------------------|
N.C.
|-------------------|--------------------------||-------------------|--------------------------||-------------------|--------------------------||-------------------|--------------------------||-------------------|--------------------------||-------------------|--------------------------|
| |
|-------------------|--------------------------||-9--------(9)------|--------------------------||-------------------|-7----(7)---6-(6)----(6)--||-------------------|--------------------------||-------------------|--------------------------||-------------------|--------------------------|
Gtr I
|-------------------|--------------------------||-------------------|--------------------------||-5--------(5)------|-2----(2)---9-(9)----(9)--||-------------------|--------------------------||-------------------|--------------------------||-------------------|--------------------------|
|-------------------|-----------------||-------------------|-----------------||-4--------(4)------|-1--------(1)----||-------------------|-----------------||-------------------|-----------------||-------------------|-----------------|
|-------------------|-------------------||-8--------(8)------|-7--------(7)------||-------------------|-------------------||-------------------|-------------------||-------------------|-------------------||-------------------|-------------------|
|-------------------|---------------------||-9--------(9)------|---------------------||-------------------|-7----(7)---6-(6)----||-------------------|---------------------||-------------------|---------------------||-------------------|---------------------|
|-------------------|-----------------------||-------------------|-----------------------||-5--------(5)------|-2----(2)---9-(9)------||-------------------|-----------------------||-------------------|-----------------------||-------------------|-----------------------|
|-------------------|-----------------||-------------------|-----------------||-4--------(4)------|-1--------(1)----||-------------------|-----------------||-------------------|-----------------||-------------------|-----------------|
>|-------------------|---------------------||-------------------|---------------------||-------------------|---------------------||-------------------|---------------------||-------------------|---------------------||-0--------(0)------|-(0)--------(0)------|
<|----------------|------------------|-------------------||----------------|------------------|-------------------||----------------|------------------|-------------------||----------------|-------------2----|-(2)--------(2)----||----------------|------------------|-------------------||----------------|------------------|-------------------|
< <|-------------------|--------------------|---------------------||-------------------|--------------------|---------------------||-------------------|--------------------|---------------------||-3--------(3)------|------0----(0)------|-(0)--------(0)------||-------------------|--------------------|---------------------||-------------------|--------------------|---------------------|
< 6|------------------------|-------------------||------------------------|-------------------||----1-------(1)----(1)--|-(1)---------------||------------------------|-------------------||------------------------|-------------------||------------------------|-------------------|
<|------------------|---------------------||------------------|---------------------||---------------9--|-(9)--------(9)------||------------------|---------------------||------------------|---------------------||------------------|---------------------|
<|--------------------|------------------||--------------------|------9----(9)----||------7----(7)------|------------------||--------------------|------------------||--------------------|------------------||--------------------|------------------|
< 7______/|--------------------------|-------------------------||-(9)----------------------|-------------------------||---------------------<3>--|-(<3>)--------(<3>)------||--------------------------|-------------------------||--------------------------|-------------------------||--------------------------|-------------------------|
|-----------------------|--------*||-----------------------|--------*||-(<3>)-----------------|--------*||-----------------------|--------*||-----------------------|--------*||-----------------------|--------*|
FIN ____________________________________________________________________________ Tablature Legend ---------------- h - hammer-on p - pull-off b - bend pb - pre-bend r - bend release (if no number after the r, then release immediately) / - slide into or out of (from/to "nowhere") s - legato slide S - shift slide - natural harmonic [n] - artificial harmonic n(n) - tapped harmonic ~ - vibrato tr - trill T - tap TP - trem. picking PM - palm muting n/ - tremolo bar dip; n = amount to dip n - tremolo bar down n/ - tremolo bar up /n - tremolo bar inverted dip = - hold bend; also acts as connecting device for hammers/pulls <> - volume swell (louder/softer) x - on rhythm slash represents muted slash o - on rhythm slash represents single note slash
Please rate this tab:
x1.0