Dream Theater - Ytse Jam tab

Band:  Dream Theater
Album: When Dream And Day Unite
Song:  The Ytse Jam

Transcribed By: Simon Scherer
Email:          sischerer@freenet.de

First of all, thanks to William T Bajzek, i found his tab on the internet,
but i quickly found out, that the most parts were slightly or complete 
incorrect and some were lost!
I (tried to) tab the song out correct, I hope it is!
If you have any more corrections on it, please e-mail me!
I left out the harmonies and solos, both is too hard to tab out for me, 
but everybody is welcome, to send it!

m  - palm mute           /  - slide up to
\  - slide down to       v  - vibrato
h  - hammer on           b  - Bend
p  - pull off            Suffixes for bend
tp - tap                 f  - full bend    h - half bend
ah - artificial harmonic q  - quarter bend t - tap bend
*  - see comment         ^  - Hold bend    r release bend
x  - Stuccatto           ~  - vibrato bend
,  - slight palm mute    () - ghost note, sustained note
t  - tremolo note        <> - Trill

Tunning E A D G B E

1.:|-------------------||---5-----------4---||---4---3---2---3---||---2---3---2---1---||-------1---0---1---||-------------------|
2.:|--------------------------------------------------------------|--------------------------------------------------------------|---7-6-7----9-7-9----10-9-10--12-10-12--10-9-10--9-7-9--7-6-7-|---------0--------0-------------------------------------------|--------------------------------------------------------------|--------------------------------------------------------------
---------------------------------| ---------------------------------| ---------------------------------| -0--8-7-8--7-5-7--5-3-5--3-2-3---| ---------------------------------| ---------------------------------| m m m m m m m m
3.: |--------------------------------------------------------------|--------------------------------------------------------------|---7-6-7----9-7-9----10-9-10--12-10-12--10-9-10--9-7-9--7-6-7-|---------0--------0-------------------------------------------|--------------------------------------------------------------|--------------------------------------------------------------
---------------------------------| ---------------------------------| ---------------------------------| -0--8-7-8--7-5-7--5-3-5--3-2-3---| ---------------------------------| ---------------------------------| m m m m m m m m m m m m
4.:|----------------------------------------------------------||----------------------------------------------------------||----------------------------------------------------------||----------------------------------------------------2-3---||---7---7---8-5-7---7-----------7---7---8-5------4-5-------||---5-555-556-3-5-555-55-66-9---5-555-556-3-55-6-----------| mm mm mm mm mm m mm mm mm m m m m m
5.:|---------------------------------------------------|---------------------------------------------------|-----------------------------------------------1-1-|---2---2-2-2---2-2-3-3-0-0-2---2-2-2---2-2-3-3-----|---------------------------------------------------|--------------------------------------------------- m m m m m m m m m m m m m m m m m m m m
---------------------------------------------------| ---------------------------------------------1-1---| ---------------------------------1-1-2-2-4-4-------| -2---2-2-2---2-2-3-3-0-0-2-2-3-3-------------------| ---------------------------------------------------| ---------------------------------------------------| m m m m m m m m m m m m m m m m m m m m m m
6.:|------------------------------------------------------------||------------------------------------------------------------||------------------------------------------------------------||-----------------------------------------------------2--3---||---7---7---8-5-7---7---8-7---7---7---8-5-------4--5---------||---5-555-556-3-5-555-556-9---5-555-556-3-5--6---------------| mm mm mm mm mm mm ah ah ah ah ah ah
7.:|-----------------------------------------------------------|---------------------------------------------------------4-|---4-----------4-----------5-2-4-----------4-----------5-1-|---2---2-2-2-2-2---2-2-2-2-3-0-2---2-2-2-2-2---2-2-2-2-3---|-----------------------------------------------------------|----------------------------------------------------------- m m m m m m m m m m m m m m m m
-------------------------------------------| ---------------------------------------5---| -4-----------4-----------5-2-----1-2-4-----| -2---2-2-2-2-2---2-2-2-2-3-0-2-3-----------| -------------------------------------------| -------------------------------------------| m m m m m m m m
8.:|-----------------------------------------------------------------------------|-----------------------------------------------------------------------------|-----------10-------9-------7-----------------------------------------------|---7---7-7------7-7-----7-7-----8-8-8-8-10-10-10-10-12-12-12-12-11-11-11-11-|----------------------------------------------------------------------------|---------------------------------------------------------------------------- m m m m m m m m m m m m m m m m m m m m m m m
---------------------------------------- ---------------------8h10p8------------- -10-10-10-10-9-9-9-9--------10-9-7------ -----------------------------------10-7- ---------------------------------------- ---------------------------------------- m m m m m m m m
-------------------------------------------------------------------------- -------------------------------------------------------------------------- -------------------------------------------------------------------------- --------10-------9-------7------------------------------------------------ -7--7-7------7-7-----7-7------8-8-8-8-10-10-10-10-12-12-12-12-11-11-11-11- -------------------------------------------------------------------------- m m m m m m m ah m m m m m m m m m m m m m m m m
-----------------------------------------| -----------------------------------------| ---------------------7h9p7---------------| -10-10-10-10-9-9-9-9-------10-9-7--------| ----------------------------------10-7---| -----------------------------------------| m m m m m m m m
9.:|------------------------------------------------------------------00-11---||--------------------------------22--------------------------22-33---------||-2-2222-222-33-00-2-2222-222-33------2-2222-222-33-00-22-33---------------||--------------------------------------------------------------------------||--------------------------------------------------------------------------||--------------------------------------------------------------------------| m mmmm mmm mm mm m mmmm mmm mm mm m mmmm mmm mm mm mm mm mm mm mm mm
10.:|--------------4---------------4-5-7-8---||--5-6p5-3-5-6-----5-6p5-3-5-6-----------||----------------------------------------||----------------------------------------||----------------------------------------||----------------------------------------|
11.:|-----------------------------------9------------------------9-10-12-13---||---10-10-10-10-11-8-10-10-10-10-11---10-10-10-10-11-8-10-11--------------||-------------------------------------------------------------------------||-------------------------------------------------------------------------||-------------------------------------------------------------------------||-------------------------------------------------------------------------| Every single note in part 11 is played 4 times!
12.:|---12-12-12-12-13----12-12-12-12-13-16-12-12-12-12-13----12-13-16-17-19-20---||------------------15----------------------------------15---------------------||-----------------------------------------------------------------------------||-----------------------------------------------------------------------------||-----------------------------------------------------------------------------||-----------------------------------------------------------------------------| Every single note in part 12 is played 4 times!
13.:|-----------------------1---0-----------------------------||-------3-----3-----3---------------3---3---3---3---3-----||-----2-----0-----2---2---2---2---2---3---2---0-----------||---0-----2-----3---------------0-----------------3---2---||---------------------------------------------------------||---------------------------------------------------------|
14.:|-------------------------------------------------------------||-------------8-6-5-------------------------------------------||---7---5---2-7-5-5-------------------------------------------||---7---5---2-5-5-5---0-0-0-0-8-8-0-0-7-7-0-0-5-5-0-0-3-3-----||---5---3---0---3-3---------------------------------------3---||-------------------------------------------------------------| m m m m m m m m m m m m m m m m m m m
15.:|-----------------------||-------------8-6-5-----||---7---5---2-7-5-5-7---||---7---5---2-5-5-5-7---||---5---3---0---3-3-5---||-----------------------|
16.:|-----------------------------------------------------------||-----------------------------------------------------------||-----------------------------------------------------------||---8-7-8---7-5-7---5-3-5---3-2-3---2-0-2-------------------||-------------------------------------------5-4-5---4-1-4---||-----------------------------------------------------------| m m m m m m m m m m m m m
17.:|-------------------------------------------------------------------------||-----------------------------3-------------------------------------------||---2-------------------------2-------------------------------2h3p2-------||---2---3---2---3-2---3---2---0-----------0000------3333-2222-------3p0---||---0-00--00--001-0-00--00--0---1111-3333------4444-----------------------||-------------------------------------------------------------------------| mm mm mm mm mm m mmmm mmmm mmmm mmmm mmmm mmmm
18.:|---------------------------------------------------------------------------||-----------------------------3---------------------------------------------||---2-------------------------2---------------------------------2h3p2-------||---2---3---2---3-2---3---2---0-----------0000------3333-0------------3p0---||---0-00--00--001-0-00--00--0---1111-3333------4444-------------------------||---------------------------------------------------------------------------| mm mm mm mm mm m mmmm mmmm mmmm mmmm mmmm ah
19.:|-----------------------------------------------------------||-----------------------------------------------------------||---2------------3---2h3p2-----2----------4-3---2h3p2-------||---2------------3---------3p0-2----------2-1---------3p0---||---0---0-000-0001-------------0--0-000-00------------------||-----------------------------------------------------------| m mmm mmm m mmm mm
20.: |---------------------------------------------------------------------|---------------------------------------------------------------------|-------------------------------------------------6-------------------|---5------------6-------------------5------------6---5h6p5---5-------|---5------------6-5h6p5---5---------5------------4---------8---8-6-5-|---3---3-333-3334-------8---8-6-4---3---3-333-333-------------------- m mmm mmm m mmm mmm
|1st,2nd&3rd time| |4th time| -------------------------------| -------------------------------| --------------------------5----| ---------6----------------5----| ---------6----------------3----| ---------4---------------------|
21.:|-------------------------------------------------------------------------|-----------------------------------------------------9-------------------|---7------------8-----------------------7------------8-7h8p7----7--------|---7------------8---7h8p7----7----------7------------6-------10---10-8-7-|---5---5-555-5556---------10---10-8-6---5---5-555-555--------------------|------------------------------------------------------------------------- m mmm mmm m mmm mmm
|1st time| |2nd time| -----------------------| -----------------------| ----9-8----------8-7---| ----9-8----------8-7---| ----7-6----------6-5---| -----------------------|
22.:|-------------------------------------------------------||-------------------------------------------------------||-------------5-------7-6-6-------------5---------------||-------5-7-6---------7-6-6-------5-7-6-----------7-6---||---5-8---------8-5---5-4-4---5-8---------8-5-5-8-------||-------------------------------------------------------| m m m
23.:|-------------------------------------------------------------|---------------------6---6---6---6---6---6---6-6-6---4-4-4-4-|---4---5---2---3---3---3---3---2---2---2-----5-5-5---3-3-3-3-|---2---2---0---0-----------------------------3-3-3---1-1-1-1-|-------------------------------------------------------------|-------------------------------------------------------------
m m m m m m | only 1st time | --------------------| --------------------| ------------5-------| ------5-7-6---------| --5-8---------8-5---| --------------------|
24.:|-------------------------||---5---3---6-----6---6---||---4---2---5---3---2-----||---2---0---3-------------||-------------------------||-------------------------|
25.:|-----7-------5-------8--------------------7-------5-------3-----------------||-------8-------5-------8--------6---6-------8-------5-------3-------6---6---||---------9-------7-------10---3---2-----------9-------7-------5---3---2-----||----------------------------------------------------------------------------||---7-------5-------8--------------------7-------5-------3-------------------||----------------------------------------------------------------------------|
26.:|-----------------------------------------------------|---------5-5---------5-5-5---------3-3---------3-3-3-|---------4-4---------4-4-4---------2-2---------2-2-2-|---2-2-2-2-2---2-2-2-2-2-2---0-0-0-0-0---0-0-0-0-0-0-|-----------------------------------------------------|----------------------------------------------------- m m m m m m m m m m m m
|-------------------------------------------------------||---------6-6---------6-6-6---------6-6-6-------6-6-6---||---------5-5---------5-5-5---3-3-3-------2-2-2---------||---3-3-3-3-3---3-3-3-3-3-3-----------------------------||-------------------------------------------------------||-------------------------------------------------------| m m m m m m m m m m m m
27.:|-----------------------------------------------------|---------5-5---------5-5-5---------3-3---------3-3-3-|---------4-4---------4-4-4---------2-2---------2-2-2-|---2-2-2-2-2---2-2-2-2-2-2---0-0-0-0-0---0-0-0-0-0-0-|-----------------------------------------------------|----------------------------------------------------- m m m m m m m m m m m m
------------------------------------------------------| -------6-6---------6-6-6---------6---6--------6---6---| -------5-5---------5-5-5---3-3-3---3----2-2-2---2-----| -3-3-3-3-3---3-3-3-3-3-3------------------------------| ------------------------------------------------------| ------------------------------------------------------| m m m m m m m m m m m m m m
28.:|------------------------------------------------------||------------------------------------------------------||------------------------------------------------------||---------7-----------7-8------------------------------||---7-5-8---8---7-5-8----------------------------------||------------------------------------------------------| t t t t t t t t t t (tremolo bent up and vibrated)
29.:|-------------------------------12--13--17--18-------------------||-------------10--8-6-8------------------------------------------||---9--7--10-------------9--7------------------------------------||----------------------------------------------------------------||----------------------------------------------------------------||----------------------------------------------------------------| v v v v v v v v v v (Very much vibrato)
30.: |1st time| |2nd time||-------------------------------------------||-------------------------------------------||---4---4---4-2-4---4------4-5-----------5--||---2---2---2-0-2---2------2-3--------22-3--||-------------------------------------------||-------------------------------------------| mm
31.:|---------------------------------------||---------------------------------------||-----8-7---------------5-------7-6-6---||---7-8-7-6-------5-7-6---------7-6-6---||---7-6-5-6---5-8---------8-5---5-4-4---||---5-----4-----------------------------|
SONG STRUCTURE: 1 x 1 2 x 4 3 x 2 4 x 1 5 x 1 6 x 1 7 x 1 8 x 1 9 x 1 10 x 1 11 x 1 12 x 1 2 x 2 13 x 2 14 x 1 15 x 1 16 x 1 17 x 3 18 x 1 19 x 4 20 x 4 21 x 2 22 x 2 23 x 2 24 x 2 25 x 1 26 x 1 27 x 1 28 x 1 29 x 1 30 x 2 2 x 2 16 x 1 31 x 1 That's all folks!
Tap to rate this tab
 
# A B C D E F G H I J K L M N O P Q R S T U V W X Y Z