Driftless Pony Club – Lyle Loves It tab

IntroA:E: --------77777777--------77777777--------77777777--------88888888-|B: 88888888--------88888888--------88888888--------88888888---------|
IntroB:Guitar 1:----------------------------------------------------------|----------------------------------------------------------|----------------------------------------------------------|-9---10-10---5-5----7-7---9---10-10---2--2--3-3/12-12-----|----------------------------------------------------------|----------------------------------------------------------|
----------------------------------------------------------|----------------------------------------------------------|----------------------------------------------------------|-9---10-10---5-5----7-7---9---10-10---2--2--3-3/12-12-----|----------------------------------------------------------|----------------------------------------------------------|
Guitar 2:
E: --------77777777--------77777777--------77777777--------88888888-|B: 88888888--------88888888--------88888888--------88888888---------|
Verse 1A:Guitar 1:----------------------------------------------------------|----------------------------------------------------------|----------------------------------------------------------|-9---10-10---5-5----7-7---9---10-10---2--2--3-3/12-12-----|----------------------------------------------------------|----------------------------------------------------------|
----------------------------------------------------------|----------------------------------------------------------|----------------------------------------------------------|-9---10-10---5-5----7-7---9---10-10---2--2--3-3/12-12-----|----------------------------------------------------------|----------------------------------------------------------|
Guitar 2:7-------------------------7---------------------------------|------------------------8-------------------------------8---|------------------------------------------------------------|-------------------------------------------------------- ---|------------------------------------------------------------|------------------------------------------------------------|
7-------------------------7---------------------------------|------------------------8-------------------------------8---|------------------------------------------------------------|-------------------------------------------------------- ---|------------------------------------------------------------|------------------------------------------------------------|
Verse 1B:Guitar 1:----------------------------------------------------------------|----------------------------------------------------------------|-7777------9---------------7777-----10--------------------------|-9999---10----5-5-5--7777--9999--12----2--2--3-3/12-12----------|----------------------------------------------------------------|----------------------------------------------------------------|
----------------------------------------------------------------|----------------------------------------------------------------|-7777------9---------------7777-----10--------------------------|-9999---10----5-5-5--7777--9999--12----2--2--3-3/12-12----------|----------------------------------------------------------------|----------------------------------------------------------------|
Guitar 2:7777---------7---------10--- 7777-8-----7------------10------|------5--5-5---5---8-8----8--------5-5----5---8--8------8----|-------------------------------------------------------------|-------------------------------------------------------- ----|-------------------------------------------------------------|-------------------------------------------------------------|
7777---------7---------10--- 7777-8-----7------------5------|------5--5-5---5---8-8----8--------5-5----5---3--3------3---|------------------------------------------------------------|-------------------------------------------------------- ---|------------------------------------------------------------|------------------------------------------------------------|
Pre Chorus:
Guitar 1:----------------------------------------------------------|----------------------------------------------------------|-5---5-----5----5-----5----5-----5----5-----5---5---------|-5---5-----5----5-----5----5-----5----5-----7---7---------|----------------------------------------------------------|----------------------------------------------------------|
----------------------------------------------------------|----------------------------------------------------------|-5---5-----5----5-----5----5------------------------------|-7---7-----7----7-----7----7----------X2------------------|----------------------------------------------------------|----------------------------------------------------------|
Guitar 2:------------------------------------------------------------|------------------------------------------------------------|------------Rest-or-same-as-Guitar-1------------------------|-------------------------------------------------------- ---|------------------------------------------------------------|------------------------------------------------------------|
Chorus:Guitar 1:-----------------------------------------------------------------|-----------------------------------------------------------------|
55555555555555555555555555555555555555555555555555555555555555555|55555555555555557777777777777777755555555555555557777777777777777|-----------------------------------------------------------------|-------------------------------------------------------- --------|
Guitar 2:-------------------------------------------------------------------|------------5555------------6666------------5555------------6666---|555555555555----555555555555----555555555555----555555555555-------|-------------------------------------------------------------------|-------------------------------------------------------------------|-------------------------------------------------------------------|
Verse 1B w/Slightly Different Rhythm
Bridge A:Guitar 1:----------------------------------------------------------------------|55----6--555----6---------------------------------5----6--555----6----|55-5/7--- 55 -5/7---------------------------------5--5/7--- 555-5/7---|------------------5555777722220000------------------------------------|----------------------------------------------------------------------|----------------------------------------------------------------------|
-----------------------------------------------------------|-----------------------------------------------------------|-----------------------------------------------------------|5555777722220000-------------------------------------------|-----------------------------------------------------------|-----------------------------------------------------------|
Guitar 2: Rest
Bridge B:Guitar 1:-----------------------------------------------------------------------|55-5--6--555-5---6----------------------------55-5--6--555-5---6-------|55-5/77--555-5/7-7----------------------------55-5/7 7--555-5/7-7------|-------------------5555777722220000------------------------------------|-----------------------------------------------------------------------|-----------------------------------------------------------------------|
-----------------------------------------------------------|-----------------------------------------------------------|-----------------------------------------------------------|5555777722220000-------------------------------------------|-----------------------------------------------------------|-----------------------------------------------------------|
Guitar 2:
-3-3-3-3-3-3-3-3-5-5-5-5-7-7-7-7-----------------------------|5-5-5-5-5-5-5-5-6-6-6-6-8-8-8-8------------------------------|-------------------------------------------------------------|-------------------------------------------------------------|-------------------------------------------------------------|-------------------------------------------------------------|
Bridge Continued:Guitar 1:---------------------------------------------------------------|---------------------------------------------------------------|9-9-9-9-----9-9-9-9-----5555555555555555-----------------------|10101010----10101010----5555555555555555-----------------------|------------------------3333333333333333-----------------------|X2--------------------------------33333333-----------------------|
Guitar 2:-------------------------------------------------------------|-------------------------------------------------------------|9-9-9-9-----9-9-9-9----9-9-9-9--5555-9-9-9-9-9---------------|10101010----10101010---10101010-7777-1010101010--------------|--------------------------------0000-------------------------|X2-------------------------------------------------------------|
Pre Chorus:
Guitar 1:----------------------------------------------------------|----------------------------------------------------------|-5---5-----5----5-----5----5-----5----5-----5---5---------|-5---5-----5----5-----5----5-----5----5-----7---7---------|----------------------------------------------------------|----------------------------------------------------------|
----------------------------------------------------------|----------------------------------------------------------|-5---5-----5----5-----5----5------------------------------|-7---7-----7----7-----7----7----------X2------------------|----------------------------------------------------------|----------------------------------------------------------|
Guitar 2:------------------------------------------------------------|------------------------------------------------------------|------------Rest-or-same-as-Guitar-1------------------------|-------------------------------------------------------- ---|------------------------------------------------------------|------------------------------------------------------------|
Chorus:Guitar 1:-----------------------------------------------------------------|-----------------------------------------------------------------|
55555555555555555555555555555555555555555555555555555555555555555|55555555555555557777777777777777755555555555555557777777777777777|-----------------------------------------------------------------|-------------------------------------------------------- --------|
Guitar 2:-------------------------------------------------------------------|------------5555------------6666------------5555------------6666---|555555555555----555555555555----555555555555----555555555555-------|-------------------------------------------------------------------|-------------------------------------------------------------------|-------------------------------------------------------------------|
Outro:Guitar 1:-----------------------------------------------------------------|-----------------------------------------------------------------|
55555555555555555555555555555555555555555555555555555555555555555|55555555555555557777777777777777755555555555555557777777777777777|-----------------------------------------------------------------| x2-------------------------------------------------------- --------|
Guitar 2:
-3-3-3-3-3-3-3-3-5-5-5-5-7-7-7-7-----------------------------|5-5-5-5-5-5-5-5-6-6-6-6-8-8-8-8-------x4---------------------|-------------------------------------------------------------|-------------------------------------------------------------|-------------------------------------------------------------|-------------------------------------------------------------|
Guitar 3 (Played With E-Bow):-------------------------------------------------------------------------------|-(8)---(10)----(12)-------x4---------------------------------------------------|-------------------------------------------------------------------------------|-------------------------------------------------------------------------------|-------------------------------------------------------------------------------|-------------------------------------------------------- ----------------------|
Guitar 4: (Rest 8 Bars)
------------------------------------------------------------------|------------------------------------------------------------------|------------------------------------------------------------------|5-5-5-5-3-3-2----X2---7-7-7-7-3-3-2----X2-5-5-5-5-3-3-2-----------|X2------------------------------------------------------------------|------------------------------------------------------------------|
------------------------------------------------------------------|------------------------------------------------------------------|------------------------------------------------------------------|7-7-7-7-3-3-2---7-7-7-7-9-9-9-9-----------------------------------|------------------------------------------------------------------|------------------------------------------------------------------|
Ending Chord:
Guitar 1:-----------------------------------------------------------------|-----------------------------------------------------------------|-5---------------------------------------------------------------|-5---------------------------------------------------------------|-3---------------------------------------------------------------|-----------------------------------------------------------------|
Guitar 2:-3---------------------------------------------------------------|-5---------------------------------------------------------------|-----------------------------------------------------------------|-----------------------------------------------------------------|-----------------------------------------------------------------|-----------------------------------------------------------------|
Guitar 3:--------------------------------------------------------------------|-(8)----------------------------------------------------------------|--------------------------------------------------------------------|--------------------------------------------------------------------|--------------------------------------------------------------------|--------------------------------------------------------------------|
Guitar 4:------------------------------------------------------------------|------------------------------------------------------------------|------------------------------------------------------------------|-5----------------------------------------------------------------|------------------------------------------------------------------|------------------------------------------------------------------|
Please rate this tab:
x1.0