Drive Me To Juliet – Absence Of Understanding tab

Song Title:  Absence Of Understanding
Band/Artist: Drive Me To Juliet
Tabbed By:   Pauz Prima (primesenthyx@yahoo.com)

-------------------------------------------------------------------------------------------

INTRO 1: 2x

|-15----15----15----15----15--------18----18----18----18----18-------||---16----16----16----16----16--16----16----16----16----16----16--16-||-----15----15----15----15----15--------15----15----15----15----15---||--------------------------------------------------------------------||--------------------------------------------------------------------||--------------------------------------------------------------------|
|-10----10----10----10----10--------11----11----11----11----11-------||---11----11----11----11----11--11----11----11----11----11----11--11-||-----12----12----12----12----12--------12----12----12----12----12---||--------------------------------------------------------------------||--------------------------------------------------------------------||--------------------------------------------------------------------|
INTRO 2: G#-Eb-F-D-Eb (2x) Guitar1:
|----------------------------------------------------------------------------------||----------------------------------------------------------------------------------||----------------------------------------------------------------------------------||-66-xx-8~-88888-8/10-10-xx-10~-10101010101010-77-xx-7~-7777777-7/8-8-xx-8~-888888-||-66-xx-6~-66666-6/8--8--xx-8~~-8-8-8-8-8-8-8--55-xx-5~-5555555-5/6-6-xx-6~-666666-||-44-xx------------------xx-----------------------xx------------------xx-----------|
|----------------------------------------------------------------------------||----------------------------------------------------------------------------||----------------------------------------------------------------------------||-66-xx-8~-88888-8/10-10-xx-10~-10101010101010-77-xx-7~-7777777-7/8-8-xx-8~~-||-66-xx-6~-66666-6/8--8--xx-8~~-8-8-8-8-8-8-8--55-xx-5~-5555555-5/6-6-xx-6~~-||-44-xx------------------xx-----------------------xx------------------xx-----|
Guitar2:
|------------------------||------------------------||-8\3-3/10-10/12~-10-8~~-| 3x|------------------------||-6\1-1/8--8//10~-8--6~~-||------------------------|
|---------------------||-9-8---9-8---9-8-----||-----8-----8-----8~~-||---------------------||---------------------||---------------------|
VERSE 1: Eb-F-D-Eb (2x) now let's try...
|-15----15----15----15----15--------18----18----18----18----18-------||---16----16----16----16----16--16----16----16----16----16----16--16-||-----15----15----15----15----15--------15----15----15----15----15---||--------------------------------------------------------------------||--------------------------------------------------------------------||--------------------------------------------------------------------|
|-10----10----10----10----10--------11----11----11----11----11-------||---11----11----11----11----11--11----11----11----11----11----11--11-||-----12----12----12----12----12--------12----12----12----12----12---||--------------------------------------------------------------------||--------------------------------------------------------------------||--------------------------------------------------------------------|
REFRAIN: D-Eb-D-F
|---------------------------18~~~-||-15~~~--16~~~--15~~~--16~~-------||---------------------------------||---------------------------------||---------------------------------||---------------------------------|
CHORUS: Eb-F-D-Eb INTERLUDE: Eb-F-D-Eb
|------------------------||------------------------||-8\3-3/10-10/12~-10-8~~-| 3x|------------------------||-6\1-1/8--8//10~-8--6~~-||------------------------|
|---------------------||-9-8---9-8---9-8-----||-----8-----8-----8~~-||---------------------||---------------------||---------------------|
VERSE 2: Eb-F-D-Eb (2x) where in this together...
|-15----15----15----15----15--------18----18----18----18----18-------||---16----16----16----16----16--16----16----16----16----16----16--16-||-----15----15----15----15----15--------15----15----15----15----15---||--------------------------------------------------------------------||--------------------------------------------------------------------||--------------------------------------------------------------------|
|-10----10----10----10----10--------11----11----11----11----11-------||---11----11----11----11----11--11----11----11----11----11----11--11-||-----12----12----12----12----12--------12----12----12----12----12---||--------------------------------------------------------------------||--------------------------------------------------------------------||--------------------------------------------------------------------|
REPEAT REFRAIN AND CHORUS BRIDGE: F-D-Eb (4x) F--
|----------------------------------------||----------------------------------------||-8-7---8-7---8-7---8-7---8-7----7~~-8~~-||-----8-----8-----8-----8-----8~---------||--------------------------------5~~-6~~-||----------------------------------------|
|---------------------------------------------||---------------------------------------------||-8-7---8-7---8-7---8-7---8-7----7~-8~-8/10~~-||-----8-----8-----8-----8-----8~--------------||--------------------------------5~-6~-6/8~~~-||---------------------------------------------|
CHORUS: Eb-F-D-Eb (4x) the anger in your heart...
|-------66-------66-------||-33-44----33-44----33-44-||-------------------------| 4x|-------------------------||-------------------------||-------------------------|
OUTRO: Eb-F-D-Eb
|------------------------||------------------------||-8\3-3/10-10/12~-10-8~~-| 3x|------------------------||-6\1-1/8--8//10~-8--6~~-||------------------------|
|---------------------||-9-8---9-8---9-8-----||-----8-----8-----8~~-||---------------------||---------------------||---------------------|
~ - vibrato/ let ring / - slide up \ - slide down x - mute -------------------------------------------------------------------------------------------- SenthyX Zone Senthyx Band
Please rate this tab:
x1.0