Drones - Oh My tab

THE DRONES

OH MY

tabbed by dan

STANDARD TUNING

|---------------------------------------------------------||----0--------------------------0-------------------------||------1--------------1-3-4-------1--------------1h3-1----||--------2-------2-1----------------2-------2-1-----------||----------/4--1----------------------/4--1---------------||---------------------------------------------------------|intro/bridge guitar 1
|---------------------------------------------------||---------------------------------------------------||-------9/--------------------4/--------------------||-------9/-whammy bar up------6/----whammy bar down-||---------------------------------------------------||---------------------------------------------------|intro/bridge guitar 2 not so sure here, a complete guess because of the whammy
|-------------------------------------||---0--0---0--0--0----4--4--4--4--4---||---1--1---1--1--1----4--4--4--4--4---| x2|---2--2---2--2--2----6--6--6--6--6---||---2--2---2--2--2----6--6--6--6--6---||---0--0---0--0--0----4--4--4--4--4---|verses part 1
|---------------------------------------||--2-2-2-2-2-2-2-2----0--0--0--0--0--0--||--2-2-2-2-2-2-2-2----1--1--1--1--1--1--| x1|--2-2-2-2-2-2-2-2----2--2--2--2--2--2--||--0-0-0-0-0-0-0-0----2--2--2--2--2--2--||---------------------0--0--0--0--0--0--|verses part 2
|---2--2-2--2-2-2-------------------0-0-0--0-0-0-0-0--0-0-0-0----||---3--3-3--3-3-3--2-2-2-2-2-2-2-2--0-0-0--0-0-0-0-0--0-0-0-0----||---2--2-2--2-2-2--2-2-2-2-2-2-2-2--1-1-1--1-1-1-1-1--1-1-1-1----||---0--0-0--0-0-0--2-2-2-2-2-2-2-2--2-2-2--2-2-2-2-2--2-2-2-2----||------------------0-0-0-0-0-0-0-0--2-2-2--2-2-2-2-2--2-2-2-2----||-----------------------------------0-0-0--0-0-0-0-0--0-0-0-0----|verses part 3
|--2---2-----0----0------------||---3---3--3--2-2--2-2---------||----2---2-----2----2----------||------------------------------||------------------------------||-----------------------0------|fill over verse part 3 about here he plays around with e chord i won't tab it, just hit notes
|--------------------------2--2--2--2--2-----------------||--------------------------3--3--3--3--3--2--2--2--2--2--||---6--6--6--6---4--4--4---2--2--2--2--2--2--2--2--2--2--||---6--6--6--6---4--4--4---0--0--0--0--0--2--2--2--2--2--||---4--4--4--4---2--2--2------------------0--0--0--0--0--||--------------------------------------------------------|chorus
|---------------------------------------------------||--------------------------------2---------2--------||--6--6--6--6--6-----------------2---------2--------||--6--6--6--6--6--6--6--6--6--6--2---------2--------||--4--4--4--4--4--6--6--6--6--6--0---------0--------||-----------------4--4--4--4--4---------------------|chorus continued
repeat verse and chorus and bridge
|--------------------------9-11h12-12/14-14/16-16------||--/9vvvvvv9vvvvvv--9h10h12----------------------------||------------------------------------------------------||------------------------------------------------------||------------------------------------------------------||------------------------------------------------------|solo (tabbed from memory, so not 100%)
|--19h21p19--16-14-16---16-14--12-12h14--||----------------------------------------||----------------------------------------||----------------------------------------||----------------------------------------||----------------------------------------|solo continued
|--12p11-11p9--9/12-9---14\9--16\------------------||--------------------------------------------------||------------------------------------7b9vvvvvvvv---||--------------------------------------------------||--------------------------------------------------||--------------------------------------------------|solo
rest is repeats until outro
|-------------||-------------||---2-x16-1---||---2-----2---||---0-----2---||---------0---|outro
Tap to rate this tab
 
# A B C D E F G H I J K L M N O P Q R S T U V W X Y Z