Dropbox - End Of Days tab

Bullet For My Valentine
End of Days

Drop C (CGCFAD)
Guitar 1 - Padge
Guitar 2 - Matt
Guitar 3 - Extra Rythems

INTRO-

Guitar 1------------ ------------------------------------------------------|------------ ------------------------------------------------------|------------ --7---5---------------------7---5---------------------|-00-0000-0~- -----------7---5---7----------------7---3---5---------|-00-0000-0~- ------------------------------------------------------|-00-0000-0~- -0--00--00---00--0---0-0~-0--00---00--00--0---0-0~----|
.. .... . .. .. .. . . . .. .. .. . . X2---------------------------------------------------------------------|---------------------------------------------------------------------|---7----5--------------------------9---10-9-7--------9---10-9-7------|-------------7-----5----7-----8~-8---8---------7~--7---7---------0~--|------------------------------8~---------------7~----------------0~--|-0---00----00---00----0---0---8~---------------7~----------------0~--| . .. .. .. . . . . . .
Guitar 2
----------- -------------------------------------------------------|----------- -------------------------------------------------------|----------- -------------------------------------------------------|-00-0000-0- ---8---7----------------------8---7--------------------|-00-0000-0- ------------8----7---8----------------8---5---7--------|-00-0000-0- -0---00--00---00---0---0-0~-0---00--00--00--0---0-0~---|
.. .... . .. .. .. . . . .. .. .. . . X2---------------------------------------------------------------------|---------------------------------------------------------------------|---------------------------------------------------------------------|---8----7----------------------8~--10--12-10-8--7~----10--12-10-8-0~-|---------------8----7----8-----8~---------------7~----------------0~-|-0---00----00----00----0----0--8~-8---8---------7~--7---7---------0~-| . .. .. .. . . . .
BEFORE VERSE- Guitar 1
-----------------------------|-----------------------------|--------------------5--7-----|----5h7p5-3---------5--7-----|--------------------3--5-----|-0---------------------------| .
Guitar 2
--------------------------------|--------------------------------|------------------------5---7---|--------------3h5p3-2---5---7---|------------------------3---5---|-----------00-------------------| ..
VERSE- Guitar 1
------------------------------------------------------------------|------------------------------------------------------------------|------------------------5--3-------------------------3--5---------|---5h7p5-3-----3h5p3-2--5--3----5h7p5-3-----3h5p3-2--3--5---------|------------------------3--1-------------------------1--3---------|-0----------00----------------0----------00-----------------------| . .. . ..
------------------------------------------------------------------|------------------------------------------------------------------|-----------------3-2-0---0------------------------------5--7------|-----5h7p5-3-----------3---3-2------5h7p5-3---3h5p3-2---5--7------|--------------------------------------------------------3--5------|--0----------00----------------0~--0--------00--------------------| . .. . . . . . . . . ..
------------------------------------------------------------------|------------------------------------------------------------------|------------------------5--3-------------------------3--5---------|---5h7p5-3-----3h5p3-2--5--3----5h7p5-3-----3h5p3-2--3--5---------|------------------------3--1-------------------------1--3---------|-0----------00----------------0----------00-----------------------| . .. . ..
-------------------------------|-----------------3-2-0---0-----|-----5h7p5-3-----------3---3-2-|-------------------------------|--0----------00----------------| . .. . . . . . . .
Guitar 2
----------------------------------------------------------------------|----------------------------------------------------------------------|----------------------5--3--3-3~-33-3~-33-3~-3--3--5--555-5~-99-1010--|-0-0~-00-0~--00-0~-0--5--3--3-3~-33-3~-33-3~-3--3--5--555-5~-99-1010--|-0-0~-00-0~--00-0~-0--3--1--1-1~-11-1~-11-1~-1--1--3--333-3~-77--8-8--|-0-0~-00-0~--00-0~-0--------------------------------------------------| . .. .. . . .. .. . ...
----------------------------------------------------------------------|----------------------------------------------------------------------|----------------------5--7----------------------5--3------------------|-0-0~-00-0~--00-0~-0--5--7--0-0~-00-0~-00-0~-0--5--3------------------|-0-0~-00-0~--00-0~-0--3--5--0-0~-00-0~-00-0~-0--3--1------------------|-0-0~-00-0~--00-0~-0--------0-0~-00-0~-00-0~-0------------------------| . .. .. . . .. .. .
----------------------------------------|----------------------------------------|----------------------------99-1010-----|--3333-3-333-3-333-5-55555--99-1010-----|--1111-1-111-1-111-3-33333--77--8-8-----|----------------------------------------| .... ... ... .....
PRE CHORUS-
Guitar 1----------------------------- ----------------------------------|----------------------------- ----------------------------------|--------10101010-9999-------- ----------------------------------|--8888---8-8-8-8-8888-101010- X2 ----------------------------------| X2--8888---8-8-8-8-8888--8-8-8- --------10-----8-----7------------|--8888---8-8-8-8-8888--8-8-8- -0~-878----878---878---87---------| ...
play it again but add
----------------------|----------------------|----------------------|--00--0000--0---------|--00--0000--0---------|--00--0000--0---------| .. .... .
Guitar 2
----------------------------- -------------|----------------------------- -------------|--------10101010-9999-------- -------------|--8888---8-8-8-8-8888-101010- X2 -0~-000-00-0-| X2--8888---8-8-8-8-8888--8-8-8- -0~-000-00-0-|--8888---8-8-8-8-8888--8-8-8- -0~-000-00-0-| ... .. .
----------------------------- --------------------------------|----------------------------- --------------------------------|--------10101010-9999-------- --------------------------------|--8888---8-8-8-8-8888-101010- X2 -0~-000-00-0-0~-000-00--0000-0~-|--8888---8-8-8-8-8888--8-8-8- -0~-000-00-0-0~-000-00--0000-0~-|--8888---8-8-8-8-8888--8-8-8- -0~-000-00-0-0~-000-00--0000-0~-| ... .. . ... .. ....
play the intro and play when it replaces in the intro-
-------------------------------|-------------------------------|-------------------------------|--------5-7-8-----------7-9-10-|--5-7-8--------8-10-11---------|-------------------------------|
play- BEFORE VERSE VERSE PRE CHORUS CHORUS BRIDGE- Guitar 1
-------------------------------------------|-----------------------------10-10h12p10-8-|----3-5-7--7-5-3--3-5-2~-------------------|-0--3-5-7--7-5-3--3-5-2~-------------------|-0--1-3-5--5-3-1--1-3-0~-------------------|-0-----------------------------------------|
------------------------------------------|-10-----10----10------10------8---8-------|----1010---1010---1010---1010---10---10---| X2------------------------------------------|------------------------------------------|------------------------------------------| . . . . . . . . . .
----------------------------------------------------|-8---8---8---8----8--8---5---5----5---10-10h12p10-8-|---77--77--77--77---7--7---66--66-------------------|----------------------------------------------------|----------------------------------------------------|----------------------------------------------------| .. .. .. .. . . .. ..
Guitar 2
---------------------------|--6----6---6---6----5--5---|----77--77--77--77----5--5-| X2---------------------------|---------------------------|---------------------------|
-------------------------------------------------|-3----3---3---3---3--3---2---2---2--8-8h10p8-6---|---33---33--33--33--3--3--22---22----------------|-------------------------------------------------|-------------------------------------------------|-------------------------------------------------|
Guitar 3- after first and second are playing melody (singing starts)
--------------------- -----------------------------------|--------------------- -----------------------------------|--------------------- -33-33-33-33-3333--22-22-22--9--10-|-00-00-00-00-00-0000- X2 -33-33-33-33-3333--22-22-22--9--10-|-00-00-00-00-00-0000- -11-11-11-11-1111--00-00-00--7---8-|-00-00-00-00-00-0000- -----------------------------------| .. .. .. .. .. .... .. .. .. .. .... .. .. ..
------------------------------------------------------------------|------------------------------------------------------------------|----------10/7---------------10/7--------3333333333333-222222-----|-000000---10/7-000000000000--10/7-000000-3333333333333-222222--0~-|-000000----8/5-000000000000---8/5-000000-1111111111111-000000--0~-|-000000--------000000000000-------000000-----------------------0~-| ...... ............ ...... ............. ......
-------------------------------------------------------------|-------------------------------------------------------------|--------3------2---------------------------------------------|-0------3-X16--2-X8--0~--------------------------------------|-0-X32--1------0-----0~--------------------------------------|-0-------------------0~--------------------------------------| .
SOLO Guitar 1
----17p13---13------ --15p10----15----------|---------17---17-13- --------17----17--10---|-------------------- X4 -----------------------| X4-------------------- -----------------------|-------------------- -----------------------|-------------------- -----------------------|
-1515151515151515151515-17b--12-------12-13---12-13-15-12-13-15-17-15-13-17-|----------------------------------13-15------15-----------------------------|----------------------------------------------------------------------------|----------------------------------------------------------------------------|----------------------------------------------------------------------------|----------------------------------------------------------------------------|
Harmonized part-
---17---20-15-------15-15h17p15-13- --------------------1715--181715-|-15--15------15-13~---------------- X2 --------131513-15-17----17-------|----------------------------------- -121415--------------------------|----------------------------------- ---------------------------------|----------------------------------- ---------------------------------|----------------------------------- ---------------------------------|
play harmonized part again I don't know what the next part to the solo is =( Guitar 2 during solo-
------------------------ ------------------------------------------|------------------------ ------------------------------------------|--------33---55---9~-10~ ------------3~-3333333--5-5555--9-9-10-10-|-0--00--33---55---9~-10~ -0~---------3~-3333333--5-3333--9-9-10-10-| X2-0--00--11---33---7~--8~ -0~---------1~-1111111--3-3333--7-7--8--8-|-0--00------------------ -0~000000000------------------------------| ......... ....... ....I don't know the exact # of palmuted notes, just go with ryhtem
then- Guitar 1-------------------------------------|-------------------------------------|--------------------------5--7-------|------5h7p5-3---3h5p3-2---5--7-------|--------------------------3--5-------|0~--0--------00----------------------| . ..
------------------------------------------------------------------|------------------------------------------------------------------|------------------------5--3-------------------------3--5---------|---5h7p5-3-----3h5p3-2--5--3----5h7p5-3-----3h5p3-2--3--5---------|------------------------3--1-------------------------1--3---------|-0----------00----------------0----------00-----------------------| . .. . ..
-------------------------|-------------------5-----|-----5h7p5-3-------5-----|-------------------3-----|--0----------00----------| . ..
Guitar 2
-------------------------------|-------------------------------|--------3~--5~--5--------------|-0~-----3~--5~--5--------------|-0~-----1~--3~--3--------------|-0~----------------------------|
Play part to pre chorus then play-
------------------------ -----------------------------------------------|------------------------ -----------------------------------------------|------------------------ X3 -----------------------------------------------|------------------------ ---------------------------00~-00000-00~-------|-------10----8----7----- ---------10-----8-----7----00~-00000-00~-------|-0~-878---878--878--87-- --0~-878----878---878---87-00~-00000-00~-------| ... ... ... .. .. ..... ..
Tap to rate this tab
 
# A B C D E F G H I J K L M N O P Q R S T U V W X Y Z