Close To You tab with lyrics by Early November - Easy chords and tabs for guitar

Early November – Close To You tab

Close To You 
Half Step Down, Drop Db

Comes in at "Now I would span across this..."Verse 1:|--------------------------------||--------------------------------||----777-------------------------| X7|--------9-9---7-9---------------||------------9-------------------||--------------------------------|
Chorus: Chords Only, Not Pattern Guitar 1(This part plays the Vocal Line, which you can hear if you listen closely)
|--------------------------------||----------7-7-7----------7------||--7-9-7-9--------7-9-7-9--------||--------------------------9-9---||--------------------------------||--------------------------------|
X2|--------------------------------||----------7-7-7-10-7-----7------||--7-9-7-9------------9-7--------||---------------------------9----||--------------------------------||--------------------------------|
Guitar 2|--------------------------------||--------------------------------||--------------------------------||-------5----9----7--------------| X2|-------5----9----7--------------| |-------5----9----7--------------|
Verse 2 This Verse starts out a little bit different than the first one.
Guitar 1|--------------------------------||--------------------------------||----777-------------------------| X21|--------9-9---7-9---------------||------------9-------------------||--------------------------------|
Guitar 2(Added in Verse 2)
(This Little Part is only played ONCE!) *=Palm Mute|----------------------||----------------------||----------------------||-9-9-9-99-7-77-7-7-7-7| |-9-9-9-99-7-77-7-7-7-7| |-9-9-9-99-7-77-7-7-7-7|
* * * ** * ** * * * *|--------------------------------------------||--------------------------------------------||--------------------------------------------| X5|-5-5-5-555-55-5-5-5-5--9-9-9-99-7-77-7-7-7-7| |-5-5-5-555-55-5-5-5-5--9-9-9-99-7-77-7-7-7-7| |-5-5-5-555-55-5-5-5-5--9-9-9-99-7-77-7-7-7-7| * * * *** ** * * * * * * * ** * ** * * * *
Chorus
|--------------------------------||----------7-7-7----------7------||--7-9-7-9--------7-9-7-9--------||--------------------------9-9---||--------------------------------||--------------------------------|
X4|--------------------------------||----------7-7-7-10-7-----7------||--7-9-7-9------------9-7--------||---------------------------9----||--------------------------------||--------------------------------|
Guitar 2|--------------------------------||--------------------------------||--------------------------------||-------5----9----7--------------| X4|-------5----9----7--------------| |-------5----9----7--------------|
Bridge/Solo
Guitar 1Fast Strumming(Chords Only,Not Pattern)|--------------------------------||--------------------------------||--14--16--19--18----------------||--------------------------------||--12--14--17--16----------------||--------------------------------| X2
|--------------------------------||--------------------------------||--14-16-1216-19-14--------------||--------------------------------||--12-14-1214-17-12--------------||--------------------------------|
Guitar 2 (Chords Only)|--------------------------------||--------------------------------||--------------------------------||-------9----5----7--------------| X4|-------9----5----7--------------| |-------9----5----7--------------|
There IS a Guitar 3 part, but Its hard for me to distinguish. Ending Chorus
|--------------------------------||----------7-7-7----------7------||--7-9-7-9--------7-9-7-9--------||--------------------------9-9---||--------------------------------||--------------------------------|
X5|--------------------------------||----------7-7-7-10-7-----7------||--7-9-7-9------------9-7--------||---------------------------9----||--------------------------------||--------------------------------|
Guitar 2|--------------------------------||--------------------------------||--------------------------------||-------5----9----7--------------| X5|-------5----9----7--------------| |-------5----9----7--------------|
All GuitarsLet It Ring!|----------||----------||----------||--5--5--5-| |--5--5--5-| |--5--5--5-|
Please rate this tab:
x1.0