Early November - Open Eyes tab

This is my first tab, please rate it!  Im 99.9% sure this is right i tried
putting in the rythm so i might have messed up a bit but all the chords are
right.  Also there are a few small variations with some of the riffs, but you can
pick thoes out super easy just by listning.  I also got lazy so you will have to
figure out how many times to play each riff.  Good Luck, and Have fun playing
this awsome song!


|------------------------------------------------||------------------------------------------------||----7-----7--7--7---7-----7-----7--7--7--7--7-77||---7-7---7--7--7-7-7-7---7-7---7--7--7-7-7--7-77||-5b--------------------------------------5--5-55||------5/7--5--3---3---3/5---5/7--5--3----3--3-33|
..|---------------------------------------||---------------------------------------||7-77767-7-777-7-7-7-7-777-7-777-7-777-7| |7-77777-7-777-7-7-7-7-777-7-777-7-777-7| |5-55555-0-000-0-0-5-5-555-5-555-5-555-5||0-00000-5-555-7-5-0-3-333-3-333-3-333-3|
|----------------------------||----------------------------||7777-7-7777-7-7777-7-7777-7-| |7777-7-7777-7-7777-7-7777-7-| |5555-5-0000-0-5555-5-5555-5-||0000-0-5555-5-3333-3-3333-3-|
|-----------------------------------------------||-----------------------------------------------||7-7-----777777777777-777777777777-77777777777-7||7-7-----777777777777-777777777777-77777777777-7||5-5-----000000000000-555555555555-00000000000-5||3-3-3/5-555555555555-333333333333-55555555555-3|
. .|-----------------------------------------||-----------------------------------------||7777-7-7777-7-7777-7-7777-7-7777-7-7777-7| |7777-7-7777-7-7777-7-7777-7-7777-7-7777-7| |0000-0-5555-0-0000-0-5555-5-5555-5-5555-5||5555-5-0000-5-5555-5-3333-3-3333-3-3333-3|
|---------------------------------------||---------------------------------------||7-77767-7-777-7-7-7-7-777-7-777-7-777-7| |7-77777-7-777-7-7-7-7-777-7-777-7-777-7| |5-55555-0-000-0-0-5-5-555-5-555-5-555-5||0-00000-5-555-7-5-0-3-333-3-333-3-333-3|
|-----------------------------------------||-----------------------------------------||7-77767-7-777---7-7-7-7-777-7-777-7-777-7||7-77777-7-777---7-7-7-7-777-7-777-7-777-7||5-55555-0-000---0-0-5-5-555-5-555-5-555-5||0-00000-5-555-5/7-5-0-3-333-3-333-3-333-3|
|----------------------||----------------------||----7-----7--7--7--7-7||---7-7---7--7--7-7-7-7||-5b----------------5-5||------5/7--5--3----3-3|
|-----------------------------------||-----------------------------------||7-7-77-7-7-7-7-7777-7-7777-7-7777-7||7-7-77-7-7-7-7-7777-7-7777-7-7777-7||5-5-55-0-0-0-5-5555-5-5555-5-5555-5||0-0-00-5-7-5-3-3333-3-3333-3-3333-3|
|--------------------------||--------------------------||777-7-777777-777777-777777||777-7-777777-777777-777777||555-5-000000-555555-555555||000-0-555555-333333-333333|
|------------------------------------------------------------------------||------------------------------------------------------------------------||7-77-777-7-77-777-7-77-777-7-77-777-7-77-777-7-77-777-7-77-777-7-77-777-||7-77-777-7-77-777-7-77-777-7-77-777-7-77-777-7-77-777-7-77-777-7-77-777-||0-00-000-0-00-000-0-00-000-0-00-000-5-55-555-5-55-555-5-55-555-5-55-555-||7-77-777-7-77-777-5-55-555-5-55-555-3-33-333-3-33-333-3-33-333-3-33-333-|
|-----------------------------------------||-----------------------------------------||7~7-77-7-77-7-77-7-77-7-77-7-77-7-77-7-77||7~7-77-7-77-7-77-7-77-7-77-7-77-7-77-7-77||0~5-55-5-55-5-55-5-55-0-00-0-00-0-00-0-00||5~3-33-3-33-3-33-3-33-5-55-5-55-5-55-5-55|
|-----------------------------------------||-----------------------------------------||7777-7-7777-7-7777-7-7777-7-7777-7-7777-7| |7777-7-7777-7-7777-7-7777-7-7777-7-7777-7| |0000-0-5555-0-0000-0-5555-5-5555-5-5555-5||5555-5-0000-5-5555-5-3333-3-3333-3-3333-3|
Tap to rate this tab
 
# A B C D E F G H I J K L M N O P Q R S T U V W X Y Z