Echoes Of Eternity – Veiled Horizon tab

ECHOES OF ETERNITY
VEILED HORIZON
Eb-Ab-Db-Gb-Bb-Eb

*=palm mute

tabbed by andherembrace



B-------------------------------------------------------------------|-------------------------------------------------------------------|--------------------------------------------------------2----------|-7-----------------8-7-5---5-7--7--7-7--5----2------------5-3-2-3-5|---5--8--5~--------------8------8--8-7----3-----3~-----------------|-------------------------------------------------------------------|
0:10L-------------------------------------------------------------------------|-------------------------------------------------------------------------|----------------------7-5-------------------------------5-3-2------------|5--5-7--------------------8-7-5----7--7-5~--------2-----------5-3-2-2-2-3|3--3-5--5----8--5~--------------8-------------3-----3~-------------------|----------6-------------------------------------5------------------------|
R-------------------------------------------------------------------------|-------------------------------------------------------------------------|---------------------------------------------------------2---------------|5--5-7--7-------------8-7-5---5-7--7--7-7-----5---2-------5-3-2-3-5-5-5-7|7--7-8----5--8--5~----------8------8--8-7-------3---3~--------------3-3-5|-------------------------------------------------------------------------|
0:22L----------------------------------------------------------------------|----------------------------------------------------------------------|------------------------------------------------------2---------------|-7-----------------8-7-5---5-7--7--7-7--5----2---------5-3-2-3-5------|---5--8--5~--------------8------8--8-7----3-----3~---------------3-3-5|----------------------------------------------------------------------|
R-----------------------------------------------------------------------|-----------------------------------------------------------------------|-----------------------------------------------------------------------|-7-----------------9----*--10---*--9---5----*--5-----------------------|-5-----------------7----7--8----8--7---3----3--3-----2---*---3---3--5--|-----------------------------------------------------0---0---1---1--3--|
0:33L--------------------------------------------------------------------|--------------------------------------------------------------------|-----------------7-5-------------------------------5-3-2------------|---------------------8-7-5----7--7-5~--------2-----------5-3-2-2-2-3|--5----8--5~---------------8-------------3-----3~-------------------|----6--------------------------------------5------------------------|
R----------------------------------------------------------------------|----------------------------------------------------------------------|----------------------------------------------------------------------|-7-----------------9----*--10---*--9---5----*--5----------------------|-5-----------------7----7--8----8--7---3----3--3-----2---*---3---3--5-|-----------------------------------------------------0---0---1---1--3-|
0:44B--------------------------------------------------------|--------------------------------------------------------|--------------------------------------------------------|-7-------7--8-------8------3-------3--5-------*-*-*-*---|-7-------7--8-------8------3-------3--5-------5-5-5-5---|-5-------5--6-------6\-----1-------1--3-------3-3-3-3---|
--------------------------------------------------------|--------------------------------------------------------|--------------------------------------------------------|-7-------7--8-------8------3-------3--5------*-*-*-*-*--|-7-------7--8-------8------3-------3--5------5-5-5-5-5--|-5-------5--6-------6\-----1-------1--3------3-3-3-3-3--|
--------------------------------------------------------|--------------------------------------------------------|--------------------------------------------------------|-7-------7--8-------8------3-------3--5------*-*-*-*-*--|-7-------7--8-------8------3-------3--5------5-5-5-5-5--|-5-------5--6-------6\-----1-------1--3------3-3-3-3-3--|
1:12B-------------------------------------------------------------------|-------------------------------------------------------------------|--------------------------------------------------------2----------|-7-----------------8-7-5---5-7--7--7-7--5----2------------5-3-2-3-5|---5--8--5~--------------8------8--8-7----3-----3~-----------------|-------------------------------------------------------------------|
L--------------------------------------------------------------------------|--------------------------------------------------------------------------|-----------------------7-5-------------------------------5-3-2------------|5--5-7---------------------8-7-5----7--7-5~--------2-----------5-3-2-2-2-3|3--3-5--5----8--5~---------------8-------------3-----3~-------------------|----------6--------------------------------------5------------------------|
R-------------------------------------------------------------------------|-------------------------------------------------------------------------|---------------------------------------------------------2---------------|5--5-7--7-------------8-7-5---5-7--7--7-7-----5---2-------5-3-2-3-5-5-5-7|7--7-8----5--8--5~----------8------8--8-7-------3---3~--------------3-3-5|-------------------------------------------------------------------------|
L--------------------------------------------------------------------|--------------------------------------------------------------------|-----------------7-5-------------------------------5-3-2------------|---------------------8-7-5----7--7-5~--------2-----------5-3-2-2-2-3|--5----8--5~---------------8-------------3-----3~-------------------|----6--------------------------------------5------------------------|R
----------------------------------------------------------------------|----------------------------------------------------------------------|----------------------------------------------------------------------|-7-----------------9----*--10---*--9---5----*--5----------------------|-5-----------------7----7--8----8--7---3----3--3-----2---*---3---3--5-|-----------------------------------------------------0---0---1---1--3-|
L----------------------------------------------------------------------|----------------------------------------------------------------------|------------------------------------------------------2---------------|-7-----------------8-7-5---5-7--7--7-7--5----2---------5-3-2-3-5------|---5--8--5~--------------8------8--8-7----3-----3~---------------3-3-5|----------------------------------------------------------------------|
R-----------------------------------------------------------------------|-----------------------------------------------------------------------|-----------------------------------------------------------------------|-7-----------------9----*--10---*--9---5----*--5-----------------------|-5-----------------7----7--8----8--7---3----3--3-----2---*---3---3--5--|-----------------------------------------------------0---0---1---1--3--|
B--------------------------------------------------------|--------------------------------------------------------|--------------------------------------------------------|-7-------7--8-------8------3-------3--5------*-*-*-*-*--|-7-------7--8-------8------3-------3--5------5-5-5-5-5--|-5-------5--6-------6\-----1-------1--3------3-3-3-3-3--|
--------------------------------------------------------|--------------------------------------------------------|--------------------------------------------------------|-7-------7--8-------8------3-------3--5------*-*-*-*-*--|-7-------7--8-------8------3-------3--5------5-5-5-5-5--|-5-------5--6-------6\-----1-------1--3------3-3-3-3-3--|
--------------------------------------------------------|--------------------------------------------------------|--------------------------------------------------------|-7-------7--8-------8------3-------3--5------*-*-*-*-*--|-7-------7--8-------8------3-------3--5------5-5-5-5-5--|-5-------5--6-------6\-----1-------1--3------3-3-3-3-3--|
2:12L-------------------------------------------------|-------------------------------------------------|-------------------------------------------------|-------------------------------------***-***-----|-5-----------------------------------888-777-***-|---------------------------------------------666-|
R-------------------------------------------------|-------------------------------------------------|-------------------------------------------------|-*****-*****-*****-*****-*****-*****-***-***-----|-55555-55555-55555-55555-55555-55555-888-777-***-|---------------------------------------------666-|
L-------------------------------------------------|-------------------------------------------------|-------------------------------------------------|-------------------------------------***-***-----|-5-----------------------------------888-777-***-|---------------------------------------------666-|
R-------------------------------------------------|-------------------------------------------------|-------------------------------------------------|-*****-*****-*****-*****-*****-*****-***-***-----|-55555-55555-55555-55555-55555-55555-888-777-***-|---------------------------------------------666-|
L-------------------------------------------------|-------------------------------------------------|-------------------------------------------------|-------------------------------------***-***-----|-8-----------------------------------888-777-***-|---------------------------------------------666-|
R-------------------------------------------------|-------------------------------------------------|-------------------------------------------------|-*****-*****-*****-*****-*****-*****-***-***-----|-55555-55555-55555-55555-55555-55555-888-777-***-|---------------------------------------------666-|
L--------------------------------|--------------------------------|-----------------*-***-*--*-7---|-*-***--*--*-*-*-7-777-8-10-----|-8-888-10-101010----------------|--------------------------------|
R--------------------------------|--------------------------------|--------------------*-*-*-------|-*-***--*-***-*-***-5-7-8-------|-5-555--7-777-8-888-------------|--------------------------------|
B-------------------------------------------------|-------------------------------------------------|-------------------------------------------------|-*****-*****-*****-*****-*****-*****-***-***-----|-55555-55555-55555-55555-55555-55555-888-777-***-|---------------------------------------------666-|
-------------------------------------------------|-------------------------------------------------|-------------------------------------------------|-*****-*****-*****-*****-*****-*****-***-***-----|-55555-55555-55555-55555-55555-55555-888-777-***-|---------------------------------------------666-|
-------------------------------------------------|-------------------------------------------------|-------------------------------------------------|-*****-*****-*****-*****-*****-*****-***-***-----|-55555-55555-55555-55555-55555-55555-888-777-***-|---------------------------------------------666-|
L------------------------------------------------|------------------------------------------------|-----------------*-***-*--*-7------------------7|-*-***--*--*-*-*-7-777-8-10-----------7---8-10--|-8-888-10-101010---------------8--10------------|------------------------------------------------|
R------------------------------------------------|------------------------------------------------|--------------------*-*-*-----------------------|-*-***--*-***-*-***-5-7-8----------------5-7-8--|-5-555--7-777-8-888------------5--7--8----------|------------------------------------------------|
B-------------------------------------------------|-------------------------------------------------|-------------------------------------------------|-*****-*****-*****-*****-*****-*****-***-***-----|-55555-55555-55555-55555-55555-55555-888-777-***-|---------------------------------------------666-|
-------------------------------------------------|-------------------------------------------------|-------------------------------------------------|-*****-*****-*****-*****-*****-*****-***-***-----|-55555-55555-55555-55555-55555-55555-888-777-***-|---------------------------------------------666-|
-------------------------------------------------|-------------------------------------------------|-------------------------------------------------|-*****-*****-*****-*****-*****-*****-***-***-----|-55555-55555-55555-55555-55555-55555-888-777-***-|---------------------------------------------666-|
L------------------------------------------------|------------------------------------------------|-----------------*-***-*--*-7------------------7|-*-***--*--*-*-*-7-777-8-10-----------7---8-10--|-8-888-10-101010---------------8--10------------|------------------------------------------------|
R------------------------------------------------|------------------------------------------------|--------------------*-*-*-----------------------|-*-***--*-***-*-***-5-7-8----------------5-7-8--|-5-555--7-777-8-888------------5--7--8----------|------------------------------------------------|
2:55B--------------------------------------------------------|--------------------------------------------------------|--------------------------------------------------------|-7-------7--8-------8------3-------3--5------*-*-*-*-*--|-7-------7--8-------8------3-------3--5------5-5-5-5-5--|-5-------5--6-------6\-----1-------1--3------3-3-3-3-3--|
--------------------------------------------------------|--------------------------------------------------------|--------------------------------------------------------|-7-------7--8-------8------3-------3--5------*-*-*-*-*--|-7-------7--8-------8------3-------3--5------5-5-5-5-5--|-5-------5--6-------6\-----1-------1--3------3-3-3-3-3--|
3:13M __ __--^-----------/ \----------------------/ \------------|-8-10~----10-8-10-8-----^-----------10-8-10-8-----^-----|--------------------10-9-10-10~---------------10-9-10---|--------------------------------------------------------|--------------------------------------------------------|--------------------------------------------------------|
R--------------------------------------------------------|--------------------------------------------------------|--------------------------------------------------------|-7--------------------7-7--8-----------------------8-8--|-7--------------------7-7--8-----------------------8-8--|-5--------------------5-5--6-----------------------6-6--|
M __ __--/\----------/ \-----------------------/ \------------|-8--10-10-10-8-10-8------^-----------10-8-10-8------^----|--------------------10--9-10-9-----------------10--9-10--|---------------------------------------------------------|---------------------------------------------------------|---------------------------------------------------------|
------------------------------------------------|------------------------------------------------|------------------------------------------------|-3---------------------3-3-5---------*-*-*-*-*--|-3---------------------3-3-5---------5-5-5-5-5--|-1---------------------1-1-3---------3-3-3-3-3--|
M __ __--^-----------/ \----------------------/ \-------------|-8-10~----10-8-10-8-----^-----------10-8-10-8-----^------|--------------------10-9-10-10~---------------10-9-10----|---------------------------------------------------------|---------------------------------------------------------|---------------------------------------------------------|
H __ __---^-----------/ \-----------------------/ \-----------|-11-13~---13-11-13-11------^---------13-11-13-11------^--|----------------------14-12-14-14~---------------14-12-14|---------------------------------------------------------|---------------------------------------------------------|---------------------------------------------------------|
R--------------------------------------------------------|--------------------------------------------------------|--------------------------------------------------------|-7--------------------7-7--8-----------------------8-8--|-7--------------------7-7--8-----------------------8-8--|-5--------------------5-5--6-----------------------6-6--|
M __ __--/\----------/ \-----------------------/ \------------------|-8--10-10-10-8-10-8------^-----------10-8-10-8------^----------|--------------------10--9-10-9-----------------10--9-10--7-----|---------------------------------------------------------------|---------------------------------------------------------------|---------------------------------------------------------------|
H __ __---/\-----------/ \-----------------------/ \----------------|-11--13-13-13-11-13-11------^---------13-11-13-11------^-------|-----------------------14-12-14-12----------------14-12-14-14--|---------------------------------------------------------------|---------------------------------------------------------------|---------------------------------------------------------------|
R------------------------------------------------|------------------------------------------------|------------------------------------------------|-3---------------------3-3-5---------*-*-*-*-*--|-3---------------------3-3-5---------5-5-5-5-5--|-1---------------------1-1-3---------3-3-3-3-3--|
Please rate this tab:
x1.0