Edguy - Final Gate tab

                                  Final Gate     (by sadzio)                               

LEAD GUITAR

Jens Ludwig
                                                                           
E||-----------------------------------|-----------------------------------|B||-----------------------------------|-----------------------------------|G||-----------------------------------|-----------------------------------|D||------9----------------------------|------9----------------------------|A||------------9-----10-----7-----9---|------------9-----10-----7-----9---|E||--7-7---7-7---7-7----7-7---7-7---7-|--7-7---7-7---7-7----7-7---7-7---7-|
-----------------------------------|-----------------------------------|-----------------------------------|-----------------------------------|-----------------------------------|-----------------------------------|------9----------------------------|------9----------------------------|------------9-----10-----7-----9---|------------9-----10-----7-----9---|--7-7---7-7---7-7----7-7---7-7---7-|--7-7---7-7---7-7----7-7---7-7---7-|
-----------------------------------|-----------------------------------|-----------------------------------|-----------------------------------|-----------------------------------|-----------------------------------|------9----------------------------|------9----------------------------|------------9-----10-----7-----9---|------------9-----10-----7-----9---|--7-7---7-7---7-7----7-7---7-7---7-|--7-7---7-7---7-7----7-7---7-7---7-|
-----------------------------------|-----------------------------------|-----------------------------------|-----------------------------------|-----------------------------------|-----------------------------------|------9----------------------------|------9----------------------------|------------9-----10-----7-----9---|------------9-----10-----7-----9---|--7-7---7-7---7-7----7-7---7-7---7-|--7-7---7-7---7-7----7-7---7-7---7-|
-----------------------------------|-----------------------------------|-----------------------------------|-----------------------------------|-----------------------------------|-----------------------------------|------9----------------------------|------9----------------------------|------------9-----10-----7-----9---|------------9-----10-----7-----9---|--7-7---7-7---7-7----7-7---7-7---7-|--7-7---7-7---7-7----7-7---7-7---7-|
-----------------------------------|-----------------------------------|-----------------------------------|-----------------------------------|-----------------------------------|-----------------------------------|------9----------------------------|------9----------------------------|------------9-----10-----7-----9---|------------9-----10-----7-----9---|--7-7---7-7---7-7----7-7---7-7---7-|--7-7---7-7---7-7----7-7---7-7---7-|
-----------------------------------|-----------------------------------|-----------------------------------|-----------------------------------|-----------------------------------|-----------------------------------|------9----------------------------|------9----------------------------|------------9-----10-----7-----9---|------------9-----10-----7-----9---|--7-7---7-7---7-7----7-7---7-7---7-|--7-7---7-7---7-7----7-7---7-7---7-|
-----------------------------------|-----------------------------------|-----------------------------------|-----------------------------------|-----------------------------------|-----------------------------------|------9----------------------------|------9----------------------------|------------9-----10-----7-----9---|------------9-----10-----7-----9---|--7-7---7-7---7-7----7-7---7-7---7-|--7-7---7-7---7-7----7-7---7-7---7-|
---------------------------|---------------------------|---------------------------|---------------------------|---------------------------|---------------------------|---------------------------|---------------------------|---------------------------|---------------------------|--7-7-7----7-7-7----7-7-7--|--7-7-7----7-7-7----7-7-7--|
---------------------------|---------------------------|---------------------------|---------------------------|---------------------------|---------------------------|---------------------------|---------------------------|---------------------------|---------------------------|--7-7-7----7-7-7----7-7-7--|--7-7-7----7-7-7----7-7-7--|
---------------------------|---------------------------|---------------------------|---------------------------|---------------------------|---------------------------|---------------------------|---------------------------|---------------------------|---------------------------|--7-7-7----7-7-7----7-7-7--|--7-7-7----7-7-7----7-7-7--|
---------------------------|---------------------------|---------------------------|---------------------------|---------------------------|---------------------------|---------------------------|---------------------------|---------------------------|---------------------------|--7-7-7----7-7-7----7-7-7--|--7-7-7----7-7-7----7-7-7--|
---------------------------|---------------------------|---------------------------|---------------------------|---------------------------|---------------------------|---------------------------|---------------------------|---------------------------|---------------------------|--7-7-7----7-7-7----7-7-7--|--7-7-7----7-7-7----7-7-7--|
---------------------------|---------------------------|---------------------------|---------------------------|---------------------------|---------------------------|---------------------------|---------------------------|---------------------------|---------------------------|--7-7-7----7-7-7----7-7-7--|--7-7-7----7-7-7----7-7-7--|
---------------------------|---------------------------|---------------------------|---------------------------|---------------------------|---------------------------|---------------------------|---------------------------|---------------------------|---------------------------|--7-7-7----7-7-7----7-7-7--|--7-7-7----7-7-7----7-7-7--|
---------------------------|---------------------------|---------------------------|---------------------------|---------------------------|---------------------------|---------------------------|---------------------------|---------------------------|---------------------------|--7-7-7----7-7-7----7-7-7--|--7-7-7----7-7-7----7-7-7--|
-----------------------------------|-----------------------------------|-----------------------------------|-----------------------------------|-----------------------------------|-----------------------------------|------9----------------------------|------9----------------------------|------------9-----10-----7-----9---|------------9-----10-----7-----9---|--7-7---7-7---7-7----7-7---7-7---7-|--7-7---7-7---7-7----7-7---7-7---7-|
-----------------------------------|-----------------------------------|-----------------------------------|-----------------------------------|-----------------------------------|-----------------------------------|------9----------------------------|------9----------------------------|------------9-----10-----7-----9---|------------9-----10-----7-----9---|--7-7---7-7---7-7----7-7---7-7---7-|--7-7---7-7---7-7----7-7---7-7---7-|
---------------------------|---------------------------|---------------------------|---------------------------|---------------------------|---------------------------|---------------------------|---------------------------|---------------------------|---------------------------|--7-7-7----7-7-7----7-7-7--|--7-7-7----7-7-7----7-7-7--|
---------------------------|---------------------------|---------------------------|---------------------------|---------------------------|---------------------------|---------------------------|---------------------------|---------------------------|---------------------------|--7-7-7----7-7-7----7-7-7--|--7-7-7----7-7-7----7-7-7--|
---------------------------|---------------------------|---------------------------|---------------------------|---------------------------|---------------------------|---------------------------|---------------------------|---------------------------|---------------------------|--7-7-7----7-7-7----7-7-7--|--7-7-7----7-7-7----7-7-7--|
---------------------------|---------------------------|---------------------------|---------------------------|---------------------------|---------------------------|---------------------------|---------------------------|---------------------------|---------------------------|--7-7-7----7-7-7----7-7-7--|--7-7-7----7-7-7----7-7-7--|
-----------------------------------|-----------------------------------|-----------------------------------|-----------------------------------|-----------------------------------|-----------------------------------|------9----------------------------|------9----------------------------|------------9-----10-----7-----9---|------------9-----10-----7-----9---|--7-7---7-7---7-7----7-7---7-7---7-|--7-7---7-7---7-7----7-7---7-7---7-|
-----------------------------------|-----------------------------------|-----------------------------------|-----------------------------------|-----------------------------------|-----------------------------------|------9----------------------------|------9----------------------------|------------9-----10-----7-----9---|------------9-----10-----7-----9---|--7-7---7-7---7-7----7-7---7-7---7-|--7-7---7-7---7-7----7-7---7-7---7-|
----------------------------|-----------------------------|--------------------|----------------------------|-----------------------------|--------------------|----------------------------|-----------------------------|--------------------|----------------------------|-----------------------------|--------------------|----------------------------|-----------------------7--7--|--9------7----------|--3-3-3-3-3----3-3-3-3-3----|--3-3-3-3-3----3-3-3-3-5--5--|--7------5----------|
--------------------|----------------------------|----------------------------|--------------------|----------------------------|----------------------------|--------------------|----------------------------|----------------------------|--------------------|----------------------------|----------------------------|--9------7----------|----------------------------|-----------------------5----|--7------5----------|--3-3-3-3-3----3-3-3-3-3----|--3-3-3-3-3----3-3-3-3-3----|
--------------------------|---------------------|-------------------|--------------------------|---------------------|-------------------|--------------------------|---------------------|-------------------|--4--4--4--4--4--4--4--4--|-----------9----7----|--9----------------|--4--4--4--4--4--4--4--4--|--4--------9----7----|--9----------------|--2--2--2--2--2--2--2--2--|--2--------7----5----|--7----------------|
-------------------|-------------------|---------------------|-------------------|-------------------|---------------------|-------------------|-------------------|---------------------|--9----------------|--5----------------|--2--------5----7----|--9----------------|--5----------------|--2--------5----7----|--7----------------|--3----------------|--0--------3----5----|
-------------------|-------------------|-------------------|-------------------|-------------------|-------------------|-------------------|-------------------|-------------------|--9----------------|--9----------------|--5----------------|--9----------------|--9----------------|--5----------------|--7----------------|--7----------------|--3----------------|
---------------------|---------------------------|----------------------------|---------------------|---------------------------|----------------------------|---------------------|--7---9---11--11b--11---9--|-------------------------9--|--2--------5----7----|---------------------------|--9---11---12--11---12------|--2--------5----7----|---------------------------|----------------------------|--0--------3----5----|---------------------------|----------------------------|
---------------------------|----------------------------|---------------------------|----------------------------|--7---9---11--11b--11---9--|-------------------------9--|---------------------------|--9---11---12--11---12------|---------------------------|----------------------------|---------------------------|----------------------------|
------------------------------|----------------------------|------------10--10b--10-------|----------------------------|--10---12-----------------12--|-------9---10--9---10---12--|------------------------------|--12------------------------|------------------------------|----------------------------|------------------------------|----------------------------|
------------------------------|----------------------------|------------10--10b--10-------|----------------------------|--10---12-----------------12--|-------9---10--9---10---12--|------------------------------|--12------------------------|------------------------------|----------------------------|------------------------------|----------------------------|
------------------------------|-----------------------------|-------10---12--12b--12---10--|-------------------------10--|--12--------------------------|--9---11---12--11---12-------|------------------------------|-----------------------------|------------------------------|-----------------------------|------------------------------|-----------------------------|
------------------------------|-----------------------------|-------10---12--12b--12---10--|-------------------------10--|--12--------------------------|--9---11---12--11---12-------|------------------------------|-----------------------------|------------------------------|-----------------------------|------------------------------|-----------------------------|
------------------------------|------------------------------|--11---13---15--15b--15---13--|--------------------------13--|------------------------------|--12---14---15--14---15-------|------------------------------|------------------------------|------------------------------|------------------------------|------------------------------|------------------------------|
------------------------------|------------------------------|--11---13---15--15b--15---13--|--------------------------13--|------------------------------|--12---14---15--14---15-------|------------------------------|------------------------------|------------------------------|------------------------------|------------------------------|------------------------------|
---------------------------|---------------------------|---------------------------|---------------------------|---------------------------|---------------------------|---------------------------|---------------------------|---------------------------|---------------------------|--7-7-7----7-7-7----7-7-7--|--7-7-7----7-7-7----7-7-7--|
---------------------------|---------------------------|---------------------------|---------------------------|---------------------------|---------------------------|---------------------------|---------------------------|---------------------------|---------------------------|--7-7-7----7-7-7----7-7-7--|--7-7-7----7-7-7----7-7-7--|
---------------------------|---------------------------|---------------------------|---------------------------|---------------------------|---------------------------|---------------------------|---------------------------|---------------------------|---------------------------|--7-7-7----7-7-7----7-7-7--|--7-7-7----7-7-7----7-7-7--|
---------------------------|---------------------------|---------------------------|---------------------------|---------------------------|---------------------------|---------------------------|---------------------------|---------------------------|---------------------------|--7-7-7----7-7-7----7-7-7--|--7-7-7----7-7-7----7-7-7--|
---------------------------|---------------------------|---------------------------|---------------------------|---------------------------|---------------------------|---------------------------|---------------------------|---------------------------|---------------------------|--7-7-7----7-7-7----7-7-7--|--7-7-7----7-7-7----7-7-7--|
---------------------------|---------------------------|---------------------------|---------------------------|---------------------------|---------------------------|---------------------------|---------------------------|---------------------------|---------------------------|--7-7-7----7-7-7----7-7-7--|--7-7-7----7-7-7----7-7-7--|
---------------------------|---------------------------|---------------------------|---------------------------|---------------------------|---------------------------|---------------------------|---------------------------|---------------------------|---------------------------|--7-7-7----7-7-7----7-7-7--|--7-7-7----7-7-7----7-7-7--|
---------------------------|---------------------------|---------------------------|---------------------------|---------------------------|---------------------------|---------------------------|---------------------------|---------------------------|---------------------------|--7-7-7----7-7-7----7-7-7--|--7-7-7----7-7-7----7-7-7--|
-----------------------------------|-----------------------------------|-----------------------------------|-----------------------------------|-----------------------------------|-----------------------------------|------9----------------------------|------9----------------------------|------------9-----10-----7-----9---|------------9-----10-----7-----9---|--7-7---7-7---7-7----7-7---7-7---7-|--7-7---7-7---7-7----7-7---7-7---7-|
-----------------------------------|-----------------------------------|-----------------------------------|-----------------------------------|-----------------------------------|-----------------------------------|------9----------------------------|------9----------------------------|------------9-----10-----7-----9---|------------9-----10-----7-----9---|--7-7---7-7---7-7----7-7---7-7---7-|--7-7---7-7---7-7----7-7---7-7---7-|
---------------------------|---------------------------|---------------------------|---------------------------|---------------------------|---------------------------|---------------------------|---------------------------|---------------------------|---------------------------|--7-7-7----7-7-7----7-7-7--|--7-7-7----7-7-7----7-7-7--|
---------------------------|---------------------------|---------------------------|---------------------------|---------------------------|---------------------------|---------------------------|---------------------------|---------------------------|---------------------------|--7-7-7----7-7-7----7-7-7--|--7-7-7----7-7-7----7-7-7--|
---------------------------|---------------------------|---------------------------|---------------------------|---------------------------|---------------------------|---------------------------|---------------------------|---------------------------|---------------------------|--7-7-7----7-7-7----7-7-7--|--7-7-7----7-7-7----7-7-7--|
---------------------------|---------------------------|---------------------------|---------------------------|---------------------------|---------------------------|---------------------------|---------------------------|---------------------------|---------------------------|--7-7-7----7-7-7----7-7-7--|--7-7-7----7-7-7----7-7-7--|
-----------------------------------|-----------------------------------|-----------------------------------|-----------------------------------|-----------------------------------|-----------------------------------|------9----------------------------|------9----------------------------|------------9-----10-----7-----9---|------------9-----10-----7-----9---|--7-7---7-7---7-7----7-7---7-7---7-|--7-7---7-7---7-7----7-7---7-7---7-|
-----------------------------------|-----------------------------------|-----------------------------------|-----------------------------------|-----------------------------------|-----------------------------------|------9----------------------------|------9----------------------------|------------9-----10-----7-----9---|------------9-----10-----7-----9---|--7-7---7-7---7-7----7-7---7-7---7-|--7-7---7-7---7-7----7-7---7-7---7-|
----------------------------|-----------------------------|--------------------|----------------------------|-----------------------------|--------------------|----------------------------|-----------------------------|--------------------|----------------------------|-----------------------------|--------------------|----------------------------|-----------------------7--7--|--9------7----------|--3-3-3-3-3----3-3-3-3-3----|--3-3-3-3-3----3-3-3-3-5--5--|--7------5----------|
--------------------|----------------------------|----------------------------|--------------------|----------------------------|----------------------------|--------------------|----------------------------|----------------------------|--------------------|----------------------------|----------------------------|--9------7----------|----------------------------|-----------------------5----|--7------5----------|--3-3-3-3-3----3-3-3-3-3----|--3-3-3-3-3----3-3-3-3-3----|
--------------------------|---------------------|-------------------|--------------------------|---------------------|-------------------|--------------------------|---------------------|-------------------|--4--4--4--4--4--4--4--4--|-----------9----7----|--9----------------|--4--4--4--4--4--4--4--4--|--4--------9----7----|--9----------------|--2--2--2--2--2--2--2--2--|--2--------7----5----|--7----------------|
-------------------|-------------------|---------------------|-------------------|-------------------|---------------------|-------------------|-------------------|---------------------|--9----------------|--5----------------|--2--------5----7----|--9----------------|--5----------------|--2--------5----7----|--7----------------|--3----------------|--0--------3----5----|
-------------------|-------------------|-------------------|-------------------|-------------------|-------------------|-------------------|-------------------|-------------------|--9----------------|--9----------------|--5----------------|--9----------------|--9----------------|--5----------------|--7----------------|--7----------------|--3----------------|
---------------------|--------------------------------------|---------------------|--------------------------------------|---------------------|--------------------------------------|--2--------5----7----|--------------------------------------|--2--------5----7----|--2-2-2-2-2-2-2-2-2-2-2-2-2-2-2-2-2-2-|--0--------3----5----|--------------------------------------|
--------------------------------------|--------------------------------------|--------------------------------------|--------------------------------------|--------------------------------------|--------------------------------------|--------------------------------------|--------------------------------------|--0-0-0-0-0-0-0-0-0-0-0-0-0-0-0-0-0-0-|--2-2-2-2-2-2-2-2-2-2-2-2-2-2-2-2-2-2-|--------------------------------------|--------------------------------------|
--------------------------------------|--------------------------------------|--------------------------------------|--------------------------------------|--------------------------------------|--------------------------------------|--------------------------------------|--------------------------------------|--0-0-0-0-0-0-0-0-0-0-0-0-0-0-0-0-0-0-|--2-2-2-2-2-2-2-2-2-2-2-2-2-2-2-2-2-2-|--------------------------------------|--------------------------------------|
--------------------------------------|-------------------|------------------|--------------------------------------|-------------------|------------------|--------------------------------------|-------------------|------------------|--------------------------------------|-------------------|------------------|--2-2-2-2-2-2-2-2-2-2-2-2-2-2-2-2-2-2-|--9----------------|------------------|--------------------------------------|--7----------------|------------------|
-------------------|------------------|-------------------|-------------------|------------------|-------------------|-------------------|------------------|-------------------|-------------------|------------------|-------------------|--9----------------|------------------|--9----------------|--7----------------|------------------|--7----------------|
------------------------------------|-----------------------------------|------------------------------------|-----------------------------------|--------------------4-4-2-2---------|-----------------------------------|----------------------------4-4-2-2-|------9----------------------------|--2-2-2-2-2-2-2-2-2-----------------|------------9-----10-----7-----9---|------------------------------------|--7-7---7-7---7-7----7-7---7-7---7-|
-----------------------------------|-----------------------------------|-----------------------------------|-----------------------------------|-----------------------------------|-----------------------------------|------9----------------------------|------9----------------------------|------------9-----10-----7-----9---|------------9-----10-----7-----9---|--7-7---7-7---7-7----7-7---7-7---7-|--7-7---7-7---7-7----7-7---7-7---7-|
-----------------------------------|-----------------------------------|-----------------------------------|-----------------------------------|-----------------------------------|-----------------------------------|------9----------------------------|------9----------------------------|------------9-----10-----7-----9---|------------9-----10-----7-----9---|--7-7---7-7---7-7----7-7---7-7---7-|--7-7---7-7---7-7----7-7---7-7---7-|
-----------------------------------|-----------------------------------|-----------------------------------|-----------------------------------|-----------------------------------|-----------------------------------|------9----------------------------|------9----------------------------|------------9-----10-----7-----9---|------------9-----10-----7-----9---|--7-7---7-7---7-7----7-7---7-7---7-|--7-7---7-7---7-7----7-7---7-7---7-|
-----------------------------------|-------||-----------------------------------|-------||-----------------------------------|-------||------9----------------------------|-------||------------9-----10-----7-----9---|-------||--7-7---7-7---7-7----7-7---7-7---7-|--7----||
This is a perfect tab ;) Please no correct this.
Tap to rate this tab
 
# A B C D E F G H I J K L M N O P Q R S T U V W X Y Z