Elbow - Friend Of Ours tab

This is my first tab (they all say that) make sure you apply a lil echo
It's a beautiful song so do it justice. Thankyou

--------------------------------2p0--------|------------------------------------0------|----4----4--4/5\4---4-2-2-0----------------|-------------------------------------------|----2----2--2/3\2---2-2--------------------|------------------------2-0----------------|
---------------------------------------------------------------|----------3----------------------7p5-8---10--12--10--8---------|----2--0-----0--0-----------0---------------------------5------|-----------------------------------------7---9---7---5---------|----3-----------2---------------------------------------3------|-----------------------2----0----------------------------------|
--------------------------|----------3---------------|----2--0-----0--0---------|--------------------------|----3-----------2---------|-------------------2------|
--------------------------------------------|--------------------------------------------|-----------------------0--0--0--0--0--2-----|----0--0--0--0--0--2------------------------|----------------------2--3--5--3--2--0------|----3--5--7--5--3--0------------------------|
---------------------------------------------------------|---------------------------------------------------------|---------------------------------------------------------|---------------------------------------------------------|---------------------------------------------------------|----0-0-0-0-0-0-7-7-7-7-7-7-0-0-0-0-0-0-0-0-0-0-0-0------|
---------------------------------------------------------------|---------------------------------------------------------------|---------------------------------------------------------------|---------------------------------------------------------------|---------------------------------------------------------------|----8-8-8-8-8-8-10-10-10-10-10-10-3-3-3-3-3-3-3-3-3-2-2-2------|
---------------------------------------------------------|---------------------------------------------------------|---------------------------------------------------------|---------------------------------------------------------|---------------------------------------------------------|----0-0-0-0-0-0-7-7-7-7-7-7-0-0-0-0-0-0-8-8-8-8-8-8------|
---------------------------------------------------------------|---------------------------------------------------------------|---------------------------------------------------------------|---------------------------------------------------------------|---------------------------------------------------------------|----8-8-8-8-8-8-10-10-10-10-10-10-3-3-3-3-3-3-3-3-3-2-2-2------|
--------------------------------------------|--------------------------------------------|----------------------0--0--0--0--0--2------|----0--0--0--0--0--2------------------------|----------------------2--3--5--3--2--0------|----3--5--7--5--3--0------------------------|
-------------------------2----------|----1------1------1------3---3------|----0---0--0---0--0---0--2-2--------|----2-2----2-2----2-2----0----------| x 7----3------3------3-----------------|------------------------------------|
-----------------------------------2------|----1------1------1------1--------3-------|----0---0--0---0--0---0--0---0---2--------|----2-2----2-2----2-2----2-2----0---------|----3------3------3------3----------------|------------------------------------------|
---------------------------------------------------------|---------------------------------------------------------|---------------------------------------------------------|---------------------------------------------------------|---------------------------------------------------------|----0-0-0-0-0-0-7-7-7-7-7-7-0-0-0-0-0-0-0-0-0-0-0-0------|
---------------------------------------------------------------|---------------------------------------------------------------|---------------------------------------------------------------|---------------------------------------------------------------|---------------------------------------------------------------|----8-8-8-8-8-8-10-10-10-10-10-10-3-3-3-3-3-3-3-3-3-2-2-2------|
---------------------------------------------------------|---------------------------------------------------------|---------------------------------------------------------|---------------------------------------------------------|---------------------------------------------------------|----0-0-0-0-0-0-7-7-7-7-7-7-0-0-0-0-0-0-8-8-8-8-8-8------|
---------------------------------------------------------------|---------------------------------------------------------------|---------------------------------------------------------------|---------------------------------------------------------------|---------------------------------------------------------------|----8-8-8-8-8-8-10-10-10-10-10-10-3-3-3-3-3-3-3-3-3-2-2-2------|
------------------------------------------------------------------|-----------15-15-15--10----10-8-----8---8--12-------12----12------|----16-16-16-16--16--11-11----9-9-9---9-9--11-11-11----11-11------|------------------------------------------------------------------|------------------------------------------------------------------|------------------------------------------------------------------|
------------------------------------------------------------------ ----|----8-----8---8-8-----8---8--------------------------------------- -15-|----9-9-9---9-9-9-9-9---9-9--9------9-------11------(11)---------- -16-|-----------------------------10--10--10-10--12--(12)--(12)-(12)--- end ----|------------------------------------------------------------------ on ----|------------------------------------------------------------------ ----|
Tap to rate this tab
 
# A B C D E F G H I J K L M N O P Q R S T U V W X Y Z