Elctrikchair - Shadows Of Death tab version 1

Rhapsody - Shadows of Death
Symphony of Enchanted Lands part 2: The Dark Secret
Two part guitar arranged for one guitar in standard E tuning.
Tabbed by Gavin Wood - vag_wood@hotmail.com / www.myspace.com/gavin_eat_cake
If you have any questions or corrections, I'm happy to answer any emails/comments.


 Guitar Legend: 
 h = Hammer On
 p = Pull Off
 \ = Descending Slide
 / = Ascending Slide
 | = Palm Mutes notes (Under Tab box) 
 * = Pitched Harmonic 
 ~ = Vibrato 
 ^ = Bend up or down (will indicate) 


00:18 Intro e||-----------------------------|-----------------------------| B||-----------------------------|-----------------------------| G||-----------------------------|-----------------------------| D||-2-----------2h3p2-----------|-2-----------2h3p2-----------| A||-2-----------------5-3-2-----|-2-----------------5-3-2-----| E||-0-----------------------5-3-|-0-----------------------5-3-|
|-----------------------------|-----------------------------||-----------------------------|-----------------------------||-----------------------------|----------------5------------||-2-----------2h3p2-----------|-3-------------------3-------||-2-----------------5-3-2-----|-3---------------------------||-0-----------------------5-3-|-1---------------------------|
|-----------------------------|-----------------------------||-----------------------------|-----------------------------||-----------------------------|-----------------------------||-2-----------2h3p2-----------|-2-----------2h3p2-----------||-2-----------------5-3-2-----|-2-----------------5-3-2-----||-0-----------------------5-3-|-0-----------------------5-3-|
|-----------------------------|-----------------------------||-----------------------------|-----------------------------||-----------------------------|-4---------4-----------------||-2-----------2h3p2-----------|-5----4----2--2----1---------||-2-----------------5-3-2-----|-2---------2-----------------||-0-----------------------5-3-|-----------------------------|
|-----------------------------||-----------------------------||-----------------------------||-2---------------------------||-2--------------14-\-/-14-\--||-0--------------12-\-/-12-\--|
Note: You can make a pretty nice sound out of the scale if you just pick the first note, then hammer on + pull off the rest. The end is just a usual slide in technique but for some reason Luca decided to slide back up and play it again. Heh.
00:34 Verse|-----------------------------|-----------------------------||-----------------------------|-----------------------------||-----------------------------|-----------------------------||-2--2--2--2--2-3-2-----------|-2--2--2--2--2-3-2-----------||-2--2--2--2--------5-3-2-----|-2--2--2--2--------5-3-2-----||-0--0--0--0--------------5-3-|-0--0--0--0--------------5-3-| | | | | | | | | | | | | | | | | | | | | | |
|-----------------------------|-----------------------------||-----------------------------|-----------------------------||-----------------------------|-----------------------------||-2--2--2--2--2-3-2-----------|-3--3--3--3--3--3--3~--------||-2--2--2--2--------5-3-2-----|-3--3--3--3--3--3--3~--------||-0--0--0--0--------------5-3-|-1--1--1--1--1--1--1~--------| | | | | | | | | | | | | | | |
|-----------------------------|-----------------------------||-----------------------------|-----------------------------||-----------------------------|-----------------------------||-2--2--2--2--2-3-2-----------|-2--2--2--2--2-3-2-----------||-2--2--2--2--------5-3-2-----|-2--2--2--2--------5-3-2-----||-0--0--0--0--------------5-3-|-0--0--0--0--------------5-3-| | | | | | | | | | | | | | | | | | | | | | |
|-----------------------------|-----------------------------||-----------------------------|-----------------------------||-----------------------------|-4----4----4--4----4---------||-2--2--2--2--2-3-2-----------|-5----4----2--2----1---------||-2--2--2--2--------5-3-2-----|-2----2----2--2----2---------||-0--0--0--0--------------5-3-|-----------------------------| | | | | | | | | | | |
|-----------------------------|-----------------------------||-----------------------------|-----------------------------||-----------------------------|-----------------------------||-2--2--2--2--2-3-2-----------|-2--2--2--2--2-3-2-----------||-2--2--2--2--------5-3-2-----|-2--2--2--2--------5-3-2-----||-0--0--0--0--------------5-3-|-0--0--0--0--------------5-3-| | | | | | | | | | | | | | | | | | | | | | |
|-----------------------------|-----------------------------||-----------------------------|-----------------------------||-----------------------------|-------------------10*-------||-2--2--2--2--2-3-2-----------|-3--3--3--3--3--3------------||-2--2--2--2--------5-3-2-----|-3--3--3--3--3--3------------||-0--0--0--0--------------5-3-|-1--1--1--1--1--1------------| | | | | | | | | | | | | | | |
|-----------------------------|-----------------------------||-----------------------------|-----------------------------||-----------------------------|-----------------------------||-2--2--2--2--2-3-2-----------|-2--2--2--2--2-3-2-----------||-2--2--2--2--------5-3-2-----|-2--2--2--2--------5-3-2-----||-0--0--0--0--------------5-3-|-0--0--0--0--------------5-3-| | | | | | | | | | | | | | | | | | | | | | |
|-----------------------------|-----------------------------||-----------------------------|-----------------------------||-----------------------------|-4----4----4--4----4---------||-2--2--2--2--2-3-2-----------|-5----4----2--2----1---------||-2--2--2--2--------5-3-2-----|-2----2----2--2----2---------||-0--0--0--0--------------5-3-|-----------------------------| | | | | | | | | | | |
Note: There are a few places the pitched harmonic can be played I just personally find the F# on the G string to be most appropriate. The last bar is a combination between the power chords and the melody. If you just want the melody then ignore the A and G strings and just play the D.
01:00 Pre-Verse Riff |-----------------------------|------------------------||-----------------------------|------------------------||-----------------------------|------------------------||-2---2---2-----2--2----2---2-|-2--2--2--2--2--2--2--2-||-2---2---2-----2--2----2---2-|-2--2--2--2--2--2--2--2-||-0---0---0-----0--0----0---0-|-0--0--0--0--0--0--0--0-| | | | | | | | |
|-----------------------------|------------------------||-----------------------------|------------------------||-----------------------------|------------------------||-5---5---5-----5--5----5---5-|-5--5--5--5--5--5--5--5-||-5---5---5-----5--5----5---5-|-5--5--5--5--5--5--5--5-||-3---3---3-----3--3----3---3-|-3--3--3--3--3--3--3--3-| | | | | | | | |
|-----------------------------|------------------------||-----------------------------|------------------------||-7---7---7-----7-------------|------------------------||-7---7---7-----7--3----3---3-|-3--3--3--3--3--3--3--3-||-5---5---5-----5--3----3---3-|-3--3--3--3--3--3--3--3-||------------------1----1---1-|-1--1--1--1--1--1--1--1-| | | | | | | | |
|-----------------------------||-----------------------------||-----------------------------||-2----2----2--2----2----2----||-2----2----2--2----2----2----||-0----0----0--0----0----0----|
Note: The D Power Chord in the fifth bar is actually an octave lower (which would mean drop D tuning). It's alot more satisfying to settle with playing in this octave rather than learning the main riff in Drop D. Trust. 01:16 Verse Note: Identical to "Verse" 1
01:43 Pre-Chorus |------------------------------------|------------------------------------||------------------------------------|------------------------------------||-5-----5--5--5--5--5--5--5--5--5--5-|------------------------------------||-5-----5--5--5--5--5--5--5--5--5--5-|-5-----5--5--5--5--5--5--5--5--5--5-||-3-----3--3--3--3--3--3--3--3--3--3-|-5-----5--5--5--5--5--5--5--5--5--5-||------------------------------------|-3-----3--3--3--3--3--3--3--3--3--3-| | | | | | | | | | | | | | | | | | | | |
|------------------------------------|------------------------------------||------------------------------------|------------------------------------||-2-----2--2--2--2--2--2--2--2--2--2-|------------------------------------||-2-----2--2--2--2--2--2--2--2--2--2-|-2-----2--2--2--2--2--2--2--2--2--2-||-0-----0--0--0--0--0--0--0--0--0--0-|-2-----2--2--2--2--2--2--2--2--2--2-||------------------------------------|-0-----0--0--0--0--0--0--0--0--0--0-| | | | | | | | | | | | | | | | | | | | |
|------------------------------------|------------------------------------||------------------------------------|------------------------------------||-5-----5--5--5--5--5--5--5--5--5--5-|------------------------------------||-5-----5--5--5--5--5--5--5--5--5--5-|-5-----5--5--5--5--5--5--5--5--5--5-||-3-----3--3--3--3--3--3--3--3--3--3-|-5-----5--5--5--5--5--5--5--5--5--5-||------------------------------------|-3-----3--3--3--3--3--3--3--3--3--3-| | | | | | | | | | | | | | | | | | | | |
|------------------------------------|------------------------------------||------------------------------------|------------------------------------||-2--2--2--2--2--2--2--2--2--2--2--2-|-4-----------------------4----------||-2--2--2--2--2--2--2--2--2--2--2--2-|-4-----------------------4----------||-0--0--0--0--0--0--0--0--0--0--0--0-|-2-----------3-2-0-------2----------||------------------------------------|-5-3-5-2-3-5-------3-2-0------------| | | | | | | | | | |
Note: I don't recommend playing the chord and the lick on the last bar. I gave it a go but just settled with playing the lick then second chord in the end.
01:56 Chorus|------------------------------------|------------------------------------||------------------------------------|------------------------------------||------------------------------------|------------------------------------||-2----------------------------------|-6----------------------------------||-2----------------------------------|-6----------------------------------||-0----------------------------------|-4----------------------------------|
|------------------------------------|------------------------------------||------------------------------------|------------------------------------||-8--8--8--8--8--8--8--8--8--8--8--8-|-8--8--8--8--8--8--8--8--8--8--8--8-||-8--8--8--8--8--8--8--8--8--8--8--8-|-8--8--8--8--8--8--8--8--8--8--8--8-||-6--6--6--6--6--6--6--6--6--6--6--6-|-6--6--6--6--6--6--6--6--6--6--6--6-||------------------------------------|------------------------------------| | | | | | | | | | | | | | | | | | | | | | | | |
|------------------------------------|------------------------------------||------------------------------------|------------------------------------||-8--8--8--8--8--8--8--8--8--8--8--8-|-8--8--8--8--8--8--8--8--8--8--8--8-||-8--8--8--8--8--8--8--8--8--8--8--8-|-8--8--8--8--8--8--8--8--8--8--8--8-||-6--6--6--6--6--6--6--6--6--6--6--6-|-6--6--6--6--6--6--6--6--6--6--6--6-||------------------------------------|------------------------------------| | | | | | | | | | | | | | | | | | | | | | | | |
|------------------------------------|------------------------------------||------------------------------------|------------------------------------||------------------------------------|------------------------------------||-2----------------------------------|-6----------------------------------||-2----------------------------------|-6----------------------------------||-0----------------------------------|-4----------------------------------|
|------------------------------------|------------------------------------||------------------------------------|------------------------------------||-8--8--8--8--8--8--8--8--8--8--8--8-|-8--8--8--8--8--8--8--8--8--8--8--8-||-8--8--8--8--8--8--8--8--8--8--8--8-|-8--8--8--8--8--8--8--8--8--8--8--8-||-6--6--6--6--6--6--6--6--6--6--6--6-|-6--6--6--6--6--6--6--6--6--6--6--6-||------------------------------------|------------------------------------| | | | | | | | | | | | | | | | | | | | | | | | |
|------------------------------------|------------------------------------||------------------------------------|------------------------------------||-8--8--8--8--8--8--8--8--8--8--8--8-|-8--8--8--8--8--8--8--8--8--8--8--8-||-8--8--8--8--8--8--8--8--8--8--8--8-|-8--8--8--8--8--8--8--8--8--8--8--8-||-6--6--6--6--6--6--6--6--6--6--6--6-|-6--6--6--6--6--6--6--6--6--6--6--6-||------------------------------------|------------------------------------| | | | | | | | | | | | | | | | | | | | | | | | |
02:13|------------------------------------|------------------------------------||------------------------------------|------------------------------------||-7----------------------------------|-8-----------------3----------------||-7----------------5-----------------|-8-----------------3----------------||-5----------------5-----------------|-6-----------------1----------------||------------------3-----------------|------------------------------------|
|------------------------------------|------------------------------------||------------------------------------|------------------------------------||------------------4-----------------|------------------------------------||-6----------------4-----------------|------------------------------------||-6----------------2-----------------|------------------------------------||-4----------------------------------|------------------------------------|
Note: Again another tuning problem. The Eb Chord is actually an octave lower but again I recommend playing it here to spare yourself the trouble. 02:23 Verse 02:49 Pre-Verse Riff 03:05 Verse 03:31 Pre-Chorus 03:44 Chorus 04:11 Verse 04:37 Guitar Solo 1 It's a typical Luca string skipping thing. However, this is without a doubt the hardest in any rhapsody song ever.
|---12-10-12--12-10-12--12-10-12-|---8-7-8--8-7-8--8-7-8-||-13--------13--------13---------|-10-----10-----10------||--------------------------------|-----------------------||--------------------------------|-----------------------||--------------------------------|-----------------------||--------------------------------|-----------------------|
|---10-8-10--10-8-10--10-8-10-|--7-5-7--7-5-7--7-5-7----||-12-------12-------12--------|-8------8------8-----7~--||-----------------------------|-------------------------||-----------------------------|-------------------------||-----------------------------|-------------------------||-----------------------------|-------------------------|
|-------------------------------------||-8-------12------10--------13--------||---9-8-9---9-8-9---11-9-11---11-9-11-||-------------------------------------||-------------------------------------||-------------------------------------|
|------------------------------------------||-12--------15--------12--------15---------||---12-11-12--12-11-12--13-11-13--13-11-13-||------------------------------------------||------------------------------------------||------------------------------------------|
|-----------12------------------12---------||-13------------------14-------------------||---14-12-14--14-12-14--15-13-15--15-13-15-||------------------------------------------||------------------------------------------||------------------------------------------|
|--12-11-12--12-11-12--15-14-15--15-14-15-||13------------------15--------12---------||----------12-----------------------------||-----------------------------------------||-----------------------------------------||-----------------------------------------|
|--19-17-19--19-17-19--15-14-15--15-14-15-||15--------17--------15--------12---------||-----------------------------------------||-----------------------------------------||-----------------------------------------||-----------------------------------------|
|--11-9-11--11-19-11--14-12-14--14-12-14-||12-------12--------16--------16---------||----------------------------------------||----------------------------------------||----------------------------------------||----------------------------------------|
|--17-15-17--17-15-17--14-12-14--14-12-14-||19--------19--------15--------15---------||-----------------------------------------||-----------------------------------------||-----------------------------------------||-----------------------------------------|
|18---15---------------------------15-----||-----------17-----------------17---------||---------------18---15---18--------------||-----------------------------------------||-----------------------------------------||-----------------------------------------|
|---------12------12^14-12-----10--------||-12~------------------------------------||----------------------------------------||----------------------------------------||----------------------------------------||----------------------------------------|
|-8---12---10h12p10---8---8h10p8----7-----||-----------------------------------------||-----------------------------------------||-----------------------------------------||-----------------------------------------||-----------------------------------------|
05:01 Keyboard Solo 1 Note: Rhythm guitar is just 4 bars of a palm muted G power chord (eighth notes)
05:07 Guitar Solo 2 |-------------------------7-------|-8---12---11---8---7---11---8---7-||-8-------7-------8---------------|----------------------------------||---9-8-9---9-8-9---9-8-9---9-8-9-|----------------------------------||---------------------------------|----------------------------------||---------------------------------|----------------------------------||---------------------------------|----------------------------------|
|-5---8---7---5---3---7---5---3---|-14-12-11---------------------11-12-||---------------------------------|----------14-12-11---11-12-14-------||---------------------------------|-------------------13---------------||---------------------------------|------------------------------------||---------------------------------|------------------------------------||---------------------------------|------------------------------------|
|-14-12-11------------------------||----------14-12-11---------------||-------------------13-11---------||-------------------------14-12~--||---------------------------------||---------------------------------|
05:13 Keyboard Solo 2
05:19 Guitar Solo 3|-19--15--17--14--15--12--14--12--||---------------------------------||---------------------------------||---------------------------------||---------------------------------||---------------------------------|
|-11h12p11------------------------------------------------------||---------14-13-12-11p12h11-------------------------------------||--------------------------13-12-11-10h11p10--------------------||-------------------------------------------12-11-9-------------||--------------------------------------------------12-10-9------||---------------------------------------------------------12-10-|
|-19-18-17-16-17-16-15-14-19-18-17-16-17-16-15-14-||-------------------------------------------------||-------------------------------------------------||-------------------------------------------------||-------------------------------------------------||-------------------------------------------------|
|-22^--21^--20^--19^--18^--19^----||---------------------------------||---------------------------------||---------------------------------||---------------------------------||---------------------------------|
05:24 Middle Section There is a quiet guitar playing an arpeggio pattern in the background but as I'm arranging this for one guitar, I'm prioritizing the lead and so I'm not going to tab the second guitar. Sorry.
|-8-7-5-7-8-7-5-7-8-7-5-7-8-7-5-7-|-------------------------------------||---------------------------------|-10-8-6-8-10-8-6-8-10-8-6-8-10-8-6-8-||---------------------------------|-------------------------------------||---------------------------------|-------------------------------------||---------------------------------|-------------------------------------||---------------------------------|-------------------------------------|
|---------------------------------|---------------------------------||-7-5-4-5-7-5-4-5-7-5-4-5-7-5-4-5-|-8-7-5-7-8-7-5-7-8-7-5-7-8-7-5-7-||---------------------------------|---------------------------------||---------------------------------|---------------------------------||---------------------------------|---------------------------------||---------------------------------|---------------------------------|
|-8-7-5-7-8-7-5-7-8-7-5-7-8-7-5-7-|-------------------------------------||---------------------------------|-10-8-6-8-10-8-6-8-10-8-6-8-10-8-6-8-||---------------------------------|-------------------------------------||---------------------------------|-------------------------------------||---------------------------------|-------------------------------------||---------------------------------|-------------------------------------|
|12-11-9-------9-11-12-11-9-------11-12-||-------11-9-11------------11-9-11------||---------------------------------------||---------------------------------------||---------------------------------------||---------------------------------------|
|14-12-11-12-14-12-11-12-14-12-11-12-14-||---------------------------------------||---------------------------------------||---------------------------------------||---------------------------------------||---------------------------------------|
05:36 Middle Section 05:50 Keyboard Solo 3
05:56 Guitar Solo 4|-14-12-11-14-11-------11------------------------||----------------13-12----13-12-10-14-12-10-8-10-||------------------------------------------------||------------------------------------------------||------------------------------------------------||------------------------------------------------|
|-7-0-0-0-10-0-0-0-8-0-0-0-7-0-0-0-|-8-0-0-0-12-0-0-0-10-0-0-0-8-0-0-0-||----------------------------------|-----------------------------------||----------------------------------|-----------------------------------||----------------------------------|-----------------------------------||----------------------------------|-----------------------------------||----------------------------------|-----------------------------------|
|---------------------------------||---------------------------------||-9*^-----------------------------||---------------------------------||---------------------------------||---------------------------------|
Note: Needs Wammy bar for proper pitched harmonic downwards bend. 06:01 Keyboard Solo 4 06:08 Guitar Solo 5
|-------------12-0-0-0-------------11-0-0-0-||-13-12-11-12----------13-12-11-12----------||-------------------------------------------||-------------------------------------------||-------------------------------------------||-------------------------------------------|
|-------------13-0-12-0-11-0-10-0-11-0-10-9-0-8-0-||-13-12-11-12-------------------------------------||-------------------------------------------------||-------------------------------------------------||-------------------------------------------------||-------------------------------------------------|
|12-11-10-9-11-10-9-8-10-9-8-7-11-10-9-8-||----------------------------------------||----------------------------------------||----------------------------------------||----------------------------------------||----------------------------------------|
|-9h10p19-------------------------------||---------13-11-10-8h10p8---------17*---||-------------------------12-10-9-------||---------------------------------------||---------------------------------------||---------------------------------------|
06:16 Monologue 06:26 Classical Instrumental 06:51 Bridge
|----------------------------------------||----------------------------------------||--------------5------------------8------||-------5------5------6-----5-----8------||-6--7-----5---3------6-----5-----6------||---------------------4-----3------------|
06:55 Chorus 07:23 Verse 07:48 Outro
|---12-10-12--12-10-12--12-10-12-|---8-7-8--8-7-8--8-7-8-||-13--------13--------13---------|-10-----10-----10------||--------------------------------|-----------------------||--------------------------------|-----------------------||--------------------------------|-----------------------||--------------------------------|-----------------------|
|---10-8-10--10-8-10--10-8-10-|--7-5-7--7-5-7--7-5-7----||-12-------12-------12--------|-8------8------8-----7~--||-----------------------------|-------------------------||-----------------------------|-------------------------||-----------------------------|-------------------------||-----------------------------|-------------------------|
|-------------------------------------||-8-------12------10--------13--------||---9-8-9---9-8-9---11-9-11---11-9-11-||-------------------------------------||-------------------------------------||-------------------------------------|
|------------------------------------------||-12--------15--------12--------15---------||---12-11-12--12-11-12--13-11-13--13-11-13-||------------------------------------------||------------------------------------------||------------------------------------------|
|-----------12------------------12---------||-13------------------14-------------------||---14-12-14--14-12-14--15-13-15--15-13-15-||------------------------------------------||------------------------------------------||------------------------------------------|
|--12-11-12--12-11-12--15-14-15--15-14-15-||13------------------15--------12---------||----------12-----------------------------||-----------------------------------------||-----------------------------------------||-----------------------------------------|
|--19-17-19--19-17-19--15-14-15--15-14-15-||15--------17--------15--------12---------||-----------------------------------------||-----------------------------------------||-----------------------------------------||-----------------------------------------|
|--11-9-11--11-19-11--14-12-14--14-12-14-||12-------12--------16--------16---------||----------------------------------------||----------------------------------------||----------------------------------------||----------------------------------------|
|--17-15-17--17-15-17--14-12-14--14-12-14-||19--------19--------15--------15---------||-----------------------------------------||-----------------------------------------||-----------------------------------------||-----------------------------------------|
|------------------------------------------||-16~-17~----------------------------------||------------------------------------------||------------------------------------------||------------------------------------------||------------------------------------------|
Note: Ending chord sequence is the same as the bridge. Song Structure: 00:18 Intro 00:34 Verse 01:00 Pre-Verse 01:16 Verse 01:43 Pre-Chorus 01:56 Chorus 02:23 Verse 02:49 Pre-Verse Riff 03:05 Verse 03:31 Pre-Chorus 03:44 Chorus 04:11 Verse 04:37 Guitar Solo 1 05:01 Keyboard Solo 1 05:07 Guitar Solo 2 05:13 Keyboard Solo 2 05:19 Guitar Solo 3 05:24 Middle Section x2 05:50 Keyboard Solo 3 05:56 Guitar Solo 4 06:01 Keyboard Solo 4 06:08 Guitar Solo 5 06:16 Monologue 06:26 Classical Instrumental 06:51 Bridge 06:55 Chorus 07:23 Verse 07:48 Outro
Tap to rate this tab
 
# A B C D E F G H I J K L M N O P Q R S T U V W X Y Z