Electric Six - Dance Commander tab

Band: Electric Six
Song: Dance Commander
Album: Fire
Tuning: Standard
Tabbed by: Aleksi
This is a very simple song and I think this is 99.5% right. Here we go!

You start with this:

|------||------||------||------||--5\--||--5\--|
Then, immediately play CHORUS:
|----------------------------------------||----------------------------------------||----------------------------------------||--4--4--5-5-5--5-5--9--9--9-x-x-x-x-x---| 3x|--4--4--5-5-5--5-5--9--9--9-x-x-x-x-x---||--2--2--3-3-3--3-3--7--7--7-x-x-x-x-x---|
|-------------------------------||-------------------------------||--7--7-7-7-7-7--9--9-9-9-9-9---||--7--7-7-7-7-7--9--9-9-9-9-9---||--5--5-5-5-5-5--7--7-7-7-7-7---||-------------------------------|
And then this:
|------------------|--------------------| |----------------------||------------------|--------------------| (play this 4 times but |----------------------||--2-2-------------|--------------------| at 4th time play this |----------------------||--2-2--5-5-5--5-5-|-9--9--9-x-x-x-x-x--| instead of normal end) |-9-9-9-9-9-9-9-9-9-9--||--0-0--5-5-5--5-5-|-9--9--9-x-x-x-x-x--| |-9-9-9-9-9-9-9-9-9-9--||-------3-3-3--3-3-|-7--7--7-x-x-x-x-x--| |-7-7-7-7-7-7-7-7-7-7--|
VERSE: At this point there comes only some electronic music about 9 seconds. After that, play this: (Without Distortion)
|--------------------------------------------------------------------------------------||--------------------------------------------------------------------------------------||--6-6-6-6-6-6-6-6--7-7-7-7-7-7-7-7/--11-11-11-11-11-11-11-11-11-11-11-11-11-11-11-11--| 6x|--6-6-6-6-6-6-6-6--7-7-7-7-7-7-7-7/--11-11-11-11-11-11-11-11-11-11-11-11-11-11-11-11--||--4-4-4-4-4-4-4-4--5-5-5-5-5-5-5-5/--9--9--9--9--9--9--9--9--9--9--9--9--9--9--9--9---||--------------------------------------------------------------------------------------|
And then CHORUS (Distortion again):
|----------------------------------------||----------------------------------------||----------------------------------------||--4--4--5-5-5--5-5--9--9--9-x-x-x-x-x---| 3x|--4--4--5-5-5--5-5--9--9--9-x-x-x-x-x---||--2--2--3-3-3--3-3--7--7--7-x-x-x-x-x---|
|-------------------------------||-------------------------------||--7--7-7-7-7-7--9--9-9-9-9-9---||--7--7-7-7-7-7--9--9-9-9-9-9---||--5--5-5-5-5-5--7--7-7-7-7-7---||-------------------------------|
After that, play this:
|----------------------------------------------------------||----------------------------------------------------------||----------------------------------------------------------||--9--9--9-9--9--9--9-9--7--5--5--5-5--5--7--7--4-4-4--4---| 4x|--9--9--9-9--9--9--9-9--7--5--5--5-5--5--7--7--4-4-4--4---||--7--7--7-7--7--7--7-7--5--3--3--3-3--3--5--5--2-2-2--2---|
Then CHORUS:
|---------------------|---------------------| |---------------------|---------------------| |--2-2----------------|---------------------| |--2-2--4--5-5-5--5-5-|-9--9--9-x-x-x-x-x---| 5x |--0-0--4--5-5-5--5-5-|-9--9--9-x-x-x-x-x---| |-------2--3-3-3--3-3-|-7--7--7-x-x-x-x-x---|
And end with this:
|-----------------------||-----------------------||-----------------------||--4--4--5-5-5--5-5--9--||--4--4--5-5-5--5-5--9--||--2--2--3-3-3--3-3--7--|
That's it! If you have any questions or corrections, mail me: AleksiH@muusikko.net
Tap to rate this tab
 
# A B C D E F G H I J K L M N O P Q R S T U V W X Y Z