Elizabeth Cotten - Wilson Rag tab

----------------------------------------------------------------------------
		        Wilson Rag - Elizabeth Cotten
----------------------------------------------------------------------------


Tabbed by: Dave S.
Email: prime-prine@hotmail.com

Tuning: Standard


|-------------|----------------|---------------|---------------||-------------|----------3-----|---3----3------|---3-----------||-------------|------5-------5-|-------------0h|=4------4----4-||-------------|----4-------4---|-----4-----4---|-----5-----5---||----3--3--4--|-5--------------|-5-------------|---------------||-------------|--------5-------|--------5------|-3------3------|
|---0-------------|----------------|---0-----------|---3-------0-----||-----------3-----|---3------------|--------3------|-----------------||-------4-------5-|-------5------5-|-------------0h|=4-----4-------4-||-----5-------5---|-----4------4---|-----4-----4---|-----5-------5---||-----------------|-5--------------|---------------|-----------------||-3-------3-------|---------5------|-5------5------|-3-------3-------|
|-----------0-----|---0-------------|---0-------------|------------------||---3-------------|-----------3-----|-----------3-----|---1-------3------||-------4-------0h|=1-----1-------1-|-------1-------0h|=2-----2-------0h=||-----5-------5---|-----2-------2---|-----2-------2---|-----3-------3----||-----------------|-----------------|-----------------|------------------||-3-------3-------|-0-------0-------|-0-------0-------|-1-------1--------|
|-----------------|-----------3-----|----------------|----------------||---1-------3-----|---1-------------|---1-------0----|-1--------1-----||-2-----2-------0-|-------0-------0h|=2-----0--------|------0-------0-||-----3-------3---|-----2-------2---|-----0-------3--|----2-------2---||-----------------|-----------------|----------------|-3--------------||-1-------1-------|-3-------3-------|-3-------3------|--------3-------|
|-------------|--------------|---0-----------|--------------||-------------|----3---------|--------3------|----3---------||-------------|-------5----5-|-------------0h|=4-----4----4-||-------------|----4-----4---|-----4-----4---|----5-----5---||-3--3--4--4--|-5------------|---------------|--------------||-------------|-------5------|-5------5------|-3-----3------|
|-------------------|--------------|---0-----------|---3------------||---3h5-3h5p3-------|----3---------|--------3------|----------------||-------------4---0h|=5-----5----5-|-------------0h|=4-----4--------||-----5---------5---|----4-----4---|-----4-----4---|-----5----------||-------------------|-5------------|---------------|----------------||-3-------3---------|-------5------|-5------5------|-3-------3--3---|
|-5--6--7----|-7--------7-----|---7----8--7--|-5---------------||------------|----------------|--------------|----------5------||-5--6--7----|------7-------7-|--------------|------6-------0h=||------------|----6-------6---|-----6-----6--|----7-------7----||------------|----------------|--------------|--------7--------||------------|-0------0-------|-0------0-----|-5---------------|
|---7-------------|----------------|---0--------0--|---------------||-----------------|----------3-----|-------3-------|-3--------3----||-6-----6---0---0-|------5-------5-|---------------|------0h4------||-----7-----------|----4-----------|-----4---------|----5-------5--||---------7---6---|-5----------5---|---------------|---------------||-5---------------|--------5-------|-5-------5--0--|-3------3------|
|-3--3--5--6--|-7----7--------|---7----8--7--|-5---------------||-------------|---------------|--------------|----------5------||----4--5--6--|-7-----------7-|--------------|------6-------0h=||-------------|----6------6---|-----6-----6--|----7-------7----||-------------|---------------|--------------|--------7--------||-3-----------|--------0------|-0------0-----|-5---------------|
|---5-------------|-----------------|---0-------0----|-3------------3-||-----------------|-----------3-----|-------3--------|----------3-----||-6-----6---6---0-|---5---5-------5-|----------------|------0h4-------||-----7-----------|-----4-----------|-----4-------4--|----5-----------||---------7---6---|-5-----------5---|----------------|------------5---||-5---------------|---------5-------|-5-------5------|-3--------------|
|--------------|-----------------|---0---0---0----|---------------||--------------|---3-------3-----|----------------|-3--------3----||------------0h|=4-----0h4-----4-|----------------|------0h4------||----5-----5---|-----5-------5---|-----5-------5--|----5-------5--||--------------|-----------------|----------------|---------------||-3-----3------|-----------------|-3-------3------|-3------3------|
|-3--------------|----------------|---0-------------|---3-------------||----------3-----|---3------------|-----------3-----|-----------3-----||------0h4-----5-|-------5------5-|-------5-------0h|=4-----4-------4-||----5-------5---|-----4------4---|-----4-------4---|-----5-------5---||----------------|-5--------------|-----------------|-----------------||-3------3-------|---------5------|-5-------5-------|-3-------3-------|
|---5----3------|----------------|---0-----------|---3-----------||---------------|---3------------|--------3------|------------3--||-------------5-|-------5------5-|-------------0h|=4-----4-------||-----5-----5---|-----4------4---|-----4-----4---|-----5---------||---------------|-5--------------|---------------|---------------||-3------3------|---------5------|-5------5------|-3-------3--3--|
|-5--6--7----|---3-------3-----|---1----1------|---0---0----------||------------|-----------------|---------------|-----------3------||-5--6--7----|-------0-------0-|-------------0h|=1-------------0h=||------------|-----0-------0---|-----0-----2---|-----2-------2----||------------|-----------------|---------------|------------------||------------|-3-------3-------|-3------3------|-0-------0--------|
|--------5------|----------------|-0-----3------|----------------||---5-----------|---1---3---4----|--------------|---1-------0----||-6-------------|----------------|------------0h|=2-----0--------||-----7-----7-7-|-----3-------4--|----2-----2---|-----0-------3--||---------------|----------------|--------------|----------------||-5------5------|-1-------1------|-3-----3------|-3-------3------|
|-------------|-0----||-1-----------|-1----||-------------|-0----||----2--------|-2----||-3-----------|-3----||-------3--0--|-3----|
| / slide up | \ slide down | h hammer-on | p pull-off | ~ vibrato | + harmonic | x Mute note ===========================================================================
Tap to rate this tab
 
# A B C D E F G H I J K L M N O P Q R S T U V W X Y Z