Elizabeth Cotten - Mama Your Papa Loves You tab

----------------------------------------------------------------------------
	      Mama, Your Papa Loves You - Elizabeth Cotten
----------------------------------------------------------------------------


Tabbed by: Dave S. 
Email: prime-prine@hotmail.com

Tuning: Standard



|-----------3-----|---3-------3-----|---3-------3-----|---3-------3-----||---0-------------|-----------------|-----------------|-----------------||-------0-------0-|-------0-------0-|-------0-------0-|-------0-------0-||-----0-------0---|-----0-------0---|-3---3---3---3---|-2---2---2---2---||-----------------|-----------------|-----------------|-----------------||-3-------3-------|-3-------3-------|-----------------|-----------------|
|---3-------3-----|---3---0---------|---0------------|--------------3-||-----------------|-----------0-----|-------0--------|----------0-----||-------0-------0-|---------------0h|=3---------3----|-0----0---------||-1---1---1---1---|-----0-------0---|----------------|----0-------0---||-----------------|-----------------|----------------|----------------||-----------------|-3-------3-------|-0---0---0---0--|-3------3-------|
|--------------|---3---0---------|---0------------|---------------||--------------|-----------0-----|-------0--------|----------0----||------------0-|---------------0h|=3---------3----|-0----0--------||----0-----0---|-----0-------0---|----------------|----0-------0--||--------------|-----------------|----------------|---------------||-3-----3------|-3-------3-------|-0---0---0---0--|-3------3------|
|-3-----------|-3--------3----|------0---------|-----------------||-------------|---------------|-3--------3-----|---0-------0-----||-------------|------0--------|--------------0h|=3-----3-------0-||----0-----0--|----0-------0--|----0-------0---|-----0-------0---||-------------|---------------|----------------|-----------------||-3-----3-----|-3------3------|-3------3-------|-3-------3-------|
|--------------|-------0---------|-------0---------|-----------------||--------------|---3-------3-----|---3-------3-----|---0-------0-----||------------0-|---------------0-|---------------0h|=3-----3-------0-||----0-----0---|-----0-------0---|-----0-------0---|-----0-------0---||--------------|-----------------|-----------------|-----------------||-3-----3------|-3-------3-------|-3-------3-------|-3-------3-------|
|----------------|--------------|-------0--------|---------------||----------0-----|--------------|---0------------|----------0----||------0h3-----2-|------------0h|=2---------0h2--|-0----0--------||----0-------0---|----0-----0---|-----0----------|----0-------0--||----------------|--------------|----------------|---------------||-3------3-------|-2-----2------|-2-------2---2--|-3------3------|
|-3--------------|--------------|-------0--------|---------------||----------0-----|--------------|---0------------|----------0----||------0h3-----2-|------------0h|=2---------0h2--|-0----0--------||----0-------0---|----0-----0---|-----0----------|----0-------0--||----------------|--------------|----------------|---------------||-3------3-------|-2-----2------|-2-------2---2--|-3------3------|
|-3-----------|-3--------3----|------0---------|-----------------||-------------|---------------|-3--------3-----|---0-------0-----||-------------|------0--------|--------------3-|-------3-------0-||----0-----0--|----0-------0--|----0-------0---|-----0-------0---||-------------|---------------|----------------|-----------------||-3-----3-----|-3------3------|-3------3-------|-3-------3-------|
|--------------|-------0---------|-------0---------|-------0----------||--------------|---3-------3-----|---3-------3-----|---0--------------||------------0-|---------------0-|---------------3-|-----------3b4----||----0-----0---|-----0-------0---|-----0-------0---|-----0---------0--||--------------|-----------------|-----------------|------------------||-3-----3------|-3-------3-------|-3-------3-------|-3-------3--------|
|----------------|----------------|-------0--------|---------------||----------0-----|---0------------|---0------------|----------0----||-0----0-------0h|=3-----3------3-|-----------0h3--|-0----0--------||----0-------0---|-----2------2---|-----2----------|----0-------0--||----------------|----------------|----------------|---------------||-3------3-------|-0-------0------|-0-------0---0--|-3------3------|
|-3----3--------|-----------------|-----------------|---------------||---------------|---0-------0-----|---0-------0---0-|----------0----||-------------0-|-------0-------0-|-------0---------|------0--------||----0------0-0h|=2---2-0h2---2-0h|=2---2-0h2-0h2---|----0-------0--||---------------|-----------------|-----------------|---------------||-3------3------|-0-------0-------|-0-------0---0---|-3------3------|
|-3----3--------|-----------------|-----------------|---------------||---------------|---0-------0-----|---0-----------0-|----------0----||-------------0-|-------0-------0-|-------0---0-----|------0--------||----0------0-0h|=2---2-0h2---2-0h|=2---2-0h2-0h2---|----0-------0--||---------------|-----------------|-----------------|---------------||-3------3------|-0-------0-------|-0-------0---0---|-3------3------|
|-3----3------3-|---0-------------|-------0--------|---------------||---------------|-------3---0-----|---0------------|----------0----||---------------|---------------3-|-----------3----|-0----0--------||----0------0---|-----0-------0---|-----0-------0--|----0-------0--||---------------|-----------------|----------------|---------------||-3------3------|-3-------3-------|-3-------3------|-3------3------|
|-3----3--------|----------0-----|-----------------|----------------||---------------|----------------|---0-------0-----|---0-------0----||-------------0h|=3----3-------0h|=3-----0h3-----0-|-------0--------||----0------0---|----2-------2---|-----2-------2---|-----0-------0--||---------------|----------------|-----------------|----------------||-3------3------|-0------0-------|-0-------0-------|-3-------3------|
|-3----3--------|-----------------|-------0--------|---------------||---------------|---0-------0-----|---0------------|----------0----||-------------0h|=3-----0h3-----0h|=3---------3----|-0----0--------||----0------0---|-----2-------2---|-----2----------|----0-------0--||---------------|-----------------|----------------|---------------||-3------3------|-0-------0-------|-0-------0---0--|-3------3------|
|-3--------------|--------------|-------0--------|---------------||----------0-----|--------------|---0------------|----------0----||------0h3-----2-|------------0h|=2---------0h2--|-0----0--------||----0-------0---|----0-----0---|-----0----------|----0-------0--||----------------|--------------|----------------|---------------||-3------3-------|-2-----2------|-2-------2---2--|-3------3------|
|-3--------------|--------------|-------0--------|---------------||----------0-----|--------------|---0------------|----------0----||------0h3-----2-|------------0h|=2---------0h2--|-0----0--------||----0-------0---|----0-----0---|-----0----------|----0-------0--||----------------|--------------|----------------|---------------||-3------3-------|-2-----2------|-2-------2---2--|-3------3------|
|-3----3--------|-----------------|-----------------|------------------||---------------|---1-------3-----|---1-------3-----|---1-------3------||-------------0-|-------0-------0-|-------0-------0h|=2-----2-------0h=||----0------0---|-----2-------2---|-----2-------2---|-----3-------3----||---------------|-----------------|-----------------|------------------||-3------3------|-3-------3-------|-3-------3-------|-1-------1--------|
|-----------------|---0-------3-----|-----------------|--------------||---1-------3-----|-----------------|-------0-------1-|--------------||-2-----2-------0-|-------0-------0-|---2-------0-----|----0---------||-----3-------3---|-----2-------2---|-----0-------3---|--------------||-----------------|-----------------|-----------------|-3-----0------||-1-------1-------|-3-------3-------|-3-------3-------|---------3-0--|
|-0----||-1----||-0----||-2----||-3----||-3----|
| / slide up | \ slide down | h hammer-on | p pull-off | ~ vibrato | + harmonic | x Mute note ===========================================================================
Tap to rate this tab
 
# A B C D E F G H I J K L M N O P Q R S T U V W X Y Z