Elton John – Can You Feel The Love Tonight tab ver. 3


NOTE! This is not mine!

Good luck :)


E|--2-----------0-----5-----|--3--------3--3--2--------|B|--------3-----------------|--------0-----------3-----|G|-----2-----2-----2-----2--|-----0-----------------2--|D|--0-----------------------|--------------0-----------|A|--------------0-----------|--------------------------|E|--------------------------|--3-----------------------|
|-----------3---------------|--------------------------||-0-----0-3----3-----3------|--------------------------||-----0-----------2---------|--------------------2-----||--------------0--------/5--|--2-----4-----5-----------||---------------------------|--------------------0--0--||-3-------------------------|--0--0--2--2--3--3--------|
|-----------0------------------||-0--2-3-------3---------------||-----------------2-------2h-4-||--------------0-----2h-4------||------------------------------||-3------3---------------------|
|-----------0--------------------|------------0-------2-------||-0--2-3-------3-----------------|--0--2-3-------3------------||---------------------------2h-4-|------------------2------2--||--------------0----0h-2h-4------|---------------0------0-----||--------------------------------|----------------------------||-3------3-----------------------|--3------3------------------|
|-3--2-0---2--0-------------|------------0------------------||---------------5-----3-----|--0--2-3-L-----3---------------||------------------2--------|------------------2-------2h-4-||---------------------2-----|---------------0-----2h-4------||---------------0--------0--|-------------------------------||-0------0------------------|--3------3---------------------|
|-----------0--------------------|------------0--5--2--------||-0--2-3-------3-----------------|--0--2-3-------------3-----||---------------------------2h-4-|---------------------------||--------------0----0h-2h-4------|------------------------4--||--------------------------------|---------------------2-----||-3------3-----------------------|--3------3-----2-----------|
|-3--2-0---2--0-------------------------||---------------------3-----2-----------||---------------------2-----2-----------||------------------2-----2-----2-----2--||-3------3------0-----0-----0-----0-----||---------------------------------------|
|-5-----2--0--------5--2--|--------------------3--2--||-------------------2-----|--------3--0--------3--3--||----2--------------------|--------------------------||-0--------------2--------|-----4--4--------0--------||-------------0-----------|--2-----------------------||-------------------------|--------------3-----------|
|-----------3--3-----2--0--|--------------5-5--0----------||------0-3----------------|----------3-5---------2--------||-----------------0--------|--2---0-2----------------2----||-0---0--------------------|------------------------------||--------------------------|--0-------------0-------------||--------------3-----4-----|------------------------------|
|--------------------------|--5-----2------------------||----0-2-3-----------------|--------2-----3-3-0-----3--||----0---------------2--2--|-----2-----2---------------||-----------------2--------|---------------------------||--------------0-----------|---------------------------||-3---------3--------------|--2-----------3------2-----|
|-3-----2-----0-----2--0--|--------------5-5--0--------||-------------------------|----------3-5---------2-----||----0-----2-----0--------|--2---0-2----------------2--||-------------------------|----------------------------||-------------------------|--0-------------0-----------||-0-----2-----3-----4-----|----------------------------|
|-5-----2--0--------5--2--|--------------------3--2--||-------------------2-----|--------3--0--------3--3--||----2--------------------|--------------------------||-0--------------2--------|-----4--4--------0--------||-------------0-----------|--2-----------------------||-------------------------|--------------3-----------|
|-----------3--3-----2--0--|-----------------------------||-------0-3----------------|--------3----3--2----2-------||-----------------0--------|--------2----2--2----2--2----||-0---0--------------------|-----2-----2-------2---------||--------------------------|--0--------------------------||-------------3-----4-----|------------------------------|
|--------------------------|--5-----2------------------||----0-2-3-----------------|--------2-----3-3-0-----3--||----0---------------2--2--|-----2-----2---------------||-----------------2--------|---------------------------||--------------0-----------|---------------------------||-3---------3--------------|--2-----------3------3-----|
^|-3-----2-----0-----------|--------------2--------||----------------------3--|--3--------3--3--------||----0-----2--------0-----|--------2-----2--------||----------------0-----0--|-----0--------0--------||-------------------------|-----------------------||-0-----2-----3-----------|-----------------------|
Please rate this tab:
x1.0