Elvis Presley - Suspicious Mind tab

suspicious mind tab by elvis presley


|------------------------||-----0-------1----1-----||------------------0-----|x 4|---0---0-0h2---2-----0--||------------------------||-3----------------------|
|-----0-------1----1-----||------------------1-----||---0---0-0h2---2-----0--|x 2|------------------------||-3----------------------||------------------------|
|-----2-------3---3------||------------------------||---2---2-2/4---4----2---||-0----------------------||------------------------||------------------------|
|-----0-------1----1-----||------------------1-----||---0---0-0h2---2-----0--||------------------------||-3----------------------||------------------------|
|------------------------||-----0-------1----1-----||------------------0-----|x 4|---0---0-0h2---2-----0--||------------------------||-3----------------------|
|-----0-------1----1-----||------------------1-----||---0---0-0h2---2-----0--|x 2|------------------------||-3----------------------||------------------------|
|-----2-------3---3------||------------------------||---2---2-2/4---4----2---||-0----------------------||------------------------||------------------------|
|-----0-------1----1-----||------------------1-----||---0---0-0h2---2-----0--||------------------------||-3----------------------||------------------------|
|-----2--------0--------------------2-----||-----3--------1----------3---------3-----||---2---2----0---0--------4-------2---2---||-0---------------------4---4---0---------||----------3----------2-------------------||-----------------------------------------|
|-0--3--2---0--2---||-1--0--3---1--3---||-0--0--4---0--2---||-2--0--4---2--0---|x 2|-3--2--2---3------||----3-------------|
steve.,,, pompom020366@hotmail.com
Tap to rate this tab
 
# A B C D E F G H I J K L M N O P Q R S T U V W X Y Z