Elvis Presley – Nearer My God To Thee tab

NEARER MY GOD TO THEE

I tabbed this from the orchestral quartet version of the hymn by Nordsee. Elvis
sings it too. It’s really pretty and is supposedly the piece played by that quartet on the
as it sank (or they did in the movie anyway ☺). This is my first tab but it’s 
accurate I think. Let me know what you think!


SOLO— played sweetly with vibrato:

|--7-----------5-----3----------|---3---------------------------||-------------------------------|-------------5----5------------||-------------------------------|-------------------------------||-------------------------------|-------------------------------||-------------------------------|-------------------------------||-------------------------------|-------------------------------|
|-------------3-------7---------|----5--------------------------||--3----------------------------|-------------------------------||-------------------------------|-------------------------------||-------------------------------|-------------------------------||-------------------------------|-------------------------------||-------------------------------|-------------------------------|
CHORUS:
|--7------------5----3----------|---3---------------------------||--8-----------------0----------|---5---------5----5------------||--7------------5---------------|---0---------5----5------------||--0------------0---------------|-------------------------------||-------------------------------|-------------------------------||-------------------------------|-------------------------------|
|-------3------2-------5--------|----3--------------------------||--3-----------1----------------|----0--------------------------||--4-----------2----------------|-------------------------------||--0----------------------------|-------------------------------||-------------------------------|-------------------------------||-------------------------------|-------------------------------|
VERSE 1
|--10---------12-----10---------|--10-------------10------------||---0----------------12---------|--12---------12----------------||---0-----------------0---------|---0---------------------------||-------------10----------------|-------------------------------||-------------------------------|-------------------------------||-------------------------------|-------------------------------|
|--10---------12-----10---------|--10---------------------------||---0----------------12---------|--12---------12---10-----------||---0-----------------0---------|---0---------12---11-----------||--------------10---------------|--------------0----0-----------||-------------------------------|-------------------------------||-------------------------------|-------------------------------|CHORUS
VERSE 2
|--7------------5-------3-------|---3---------------------------||-----------------------0-------|---5---------5---5-------------||--7------------5-------0-------|---5---------5---5-------------||--0------------0---------------|-------------5---5-------------||-------------------------------|-------------------------------||-------------------------------|-------------------------------|
|-----------------3-------7-----|---5---------------------------||--3--------------3-------8-----|---3---------------------------||--4--------------0-------0-----|-------------------------------||-------------------------------|-------------------------------||-------------------------------|-------------------------------||-------------------------------|-------------------------------|
CHORUS VERSE 1 CHORUS VERSE 1 CHORUS (add variation on the verses if you want) Sarah
Please rate this tab:
x1.0