Emerson Hart – I Wish The Best For You tab ver. 2

Tabbed By: Josh Daley

Tuning: E A D G B E (Standard) - Capo 1

Guitar 1: Acoustic
Guitar 2: Acoustic/Electric



Intro & Interlude: (Guitar 2 Only)

-----------------------1--0--|--1---0-1-----3-1------------|----2------------------------|------------0-------3--------|--0--------------------------|----------3-------1----------|
1st Verse: (Guitar 2 Only)
-----------------------1--0--|--1---0-1-----3-1------------|----2------------------------|------------0-------3--------|--0--------------------------|----------3-------1----------|
-----------------------3--1--|--1---0-1-----3-1------------|----2------------------------|------------0-------3--------|--0----------------3---------|----------3-------1----------|
--1---0-1--------------------|----3---------1-0-------3----|----------------------0------|------------2-------0--------|--0-------3------------------|------------------3----------|
--1---0-1--------------------|----3---------1-0-------3----|----------------------0------|------------2-------0--------|--0-------3------------------|------------------3----------|
Proceeding Verses: Guitar 1:
--0----3----1--------| --1----3----1--------| --2----0----2--------| x2 --2----0----3--------| --0----x----3--------| -------3----1--------|
--1----0----3--------| --3----1----0--------| --2----0----0--------| x2 --0----2----0--------| -------3----x--------| -------3----3--------|
Guitar 2:
-----------------------1--0--| --1---0-1-----3-1------------| ----2------------------------| ------------0-------3--------| --0--------------------------| ----------3-------1----------|
-----------------------3--1--| --1---0-1-----3-1------------| ----2------------------------| ------------0-------3--------| --0----------------3---------| ----------3-------1----------|
--1---0-1--------------------| ----3---------1-0-------3----| ----------------------0------| ------------2-------0--------| --0-------3------------------| ------------------3----------|
--1---0-1--------------------| ----3---------1-0-------3----| ----------------------0------| ------------2-------0--------| --0-------3------------------| ------------------3----------|
Chorus: Both Guitars: (Guitar 2 downstrokes only)
--0----0----0----1----|--1----1----1----1----|--0----0----2----2----| x2--2----0----2----3----|--3----2----0----3----|--3--------------1----|
--00-x-x-33-x-x-1---|--11-x-x-33-x-x-1---|--22-x-x-00-x-x-2---| x2--22-x-x-00-x-x-3---|--00-x-x-xx-x-x-3---|-----x-x-33-x-x-1---|
Bridge: Both Guitars: (Guitar 2 downstrokes only)
--1----3-3-3-3-1----1----|--3----3-3-3-3-3----1----|--2----0-0-0-0-2----2----|--0----0-0-0-0-0----3----|-------3-2-3-2------3----|--------------------1----|
Outro: (Guitar 2 Only)
-----------------------1--0--|--1---0-1-----3-1------------|----2------------------------|------------0-------3--------|--0--------------------------|----------3-------1----------|
------------------------1----|--1---0-1-----3-1------------|----2------------------------|------------0-------3--------|--0--------------------------|----------3-------1----------|
Please rate this tab:
x1.0