Emery - Thoughtlife tab

I never could get the chords that are posted to sound quite right, so I thought I would 
this out. I think it should be 95% correct...

Verse 1:-----------------------------------------------------|-------------------------------------------------3---|-7---7-7-7-7-7---7-7-7-7-------------------------4---|-7---7-7-7-7-7---7-7-7-7-2---2-2-2-2-2---2-2-2-2-4---|-9---9-9-9-9-9---9-9-9-9-2---2-2-2-2-2---2-2-2-2-2---|-------------------------2---2-2-2-2-2---2-2-2-2-----|
-----------------------------------------------------|-3-3-3-3-3---3-3-3-3-3---3-3-3-3-3---3-3-3-3-2-------|-4-4-4-4-4---4-4-4-4-4---4-4-4-4-4---4-4-4-4-0-------|-4-4-4-4-4---4-4-4-4-4---4-4-4-4-4---4-4-4-4-0-------|-2-2-2-2-2---2-2-2-2-2---2-2-2-2-2---2-2-2-2-0-------|
-----------------------------------------------------|---------------------3---3-3-3-3-3---3-3-3-3---------|-2-2-2-2-2---2-2-2-2-4---4-4-4-4-4---4-4-4-4---------|-0-0-0-0-0---0-0-0-0-4---4-4-4-4-4---4-4-4-4-9-------|-0-0-0-0-0---0-0-0-0-2---2-2-2-2-2---2-2-2-2-7-------|-0-0-0-0-0---0-0-0-0-------------------------6-------|
-----------------------------------------------------|-----------------------------------------------------|---------------------------------------------7-------|-9-9-9-9-9---9-9-9-9-9---9-9-9-9-9---9-9-9-9-7-------|-7-7-7-7-7---7-7-7-7-5---5-5-5-5-5---5-5-5-5-9-------|-6-6-6-6-6---6-6-6-6-5---5-5-5-5-5---5-5-5-5---------|
-----------------------------------------------------|---------------------------------------------3-------|-7-7-7-7-7---7-7-7-7-------------------------4-------|-7-7-7-7-7---7-7-7-7-2---2-2-2-2-2---2-2-2-2-4-------|-9-9-9-9-9---9-9-9-9-2---2-2-2-2-2---2-2-2-2-2-------|---------------------2---2-2-2-2-2---2-2-2-2---------|
-----------------------------------------------------|-3-3-3-3-3---3-3-3-3-3---3-3-3-3-3---3-3-3-3-2-------|-4-4-4-4-4---4-4-4-4-4---4-4-4-4-4---4-4-4-4-0-------|-4-4-4-4-4---4-4-4-4-4---4-4-4-4-4---4-4-4-4-0-------|-2-2-2-2-2---2-2-2-2-2---2-2-2-2-2---2-2-2-2-0-------|
-----------------------------------------------------|---------------------3---3-3-3-3-3---3-3-3-3---------|-2-2-2-2-2---2-2-2-2-4---4-4-4-4-4---4-4-4-4---------|-0-0-0-0-0---0-0-0-0-4---4-4-4-4-4---4-4-4-4-9-------|-0-0-0-0-0---0-0-0-0-2---2-2-2-2-2---2-2-2-2-7-------|-0-0-0-0-0---0-0-0-0-------------------------6-------|
-----------------------------------------------------|-----------------------------------------------------|-----------------------------------------------------|-9-9-9-9-9---9-9-9-9-9---9-9-9-9-9---9-9-9-9-9-------|-7-7-7-7-7---7-7-7-7-7---7-7-7-7-7---7-7-7-7-5-------|-6-6-6-6-6---6-6-6-6-6---6-6-6-6-6---6-6-6-6-5-------|
-----------------------|-----------------------|-----------------------|-9-9-9-9-9---9-9-9-9-9-|-5-5-5-5-5---5-5-5-5-5-|-5-5-5-5-5---5-5-5-5-5-|
Chorus 1:---------------------------------------------------|---------------------------------------------------|---------------------------------------------------|-9-7----------9-7----------8-8---8-8---8-8---8-8---|-5-5---9-7-5--5-5---9-7-5--8-8---8-8---8-8---8-8---|-5-5---5-5-5--5-5---5-5-5--8-8---8-8---8-8---8-8---|
---------------------------------------------------|---------------------------------------------------|---------------------------------------------------|-9-7----------9-7----------2-2---2-2---2-2---2-2---|-5-5---9-7-5--5-5---9-7-5--2-2---2-2---2-2---2-2---|-5-5---5-5-5--5-5---5-5-5--2-2---2-2---2-2---2-2---|
---------------------------------------------------|---------------------------------------------------|---------------------------------------------------|-9-7----------9-7----------8-8---8-8---8-8---8-8---|-5-5---9-7-5--5-5---9-7-5--8-8---8-8---8-8---8-8---|-5-5---5-5-5--5-5---5-5-5--8-8---8-8---8-8---8-8---|
---------------------------------------------------|---------------------------------------------------|---------------------------------------------------|-9-7----------9-7----------2-2---2-2---2-2---2-2---|-5-5---9-7-5--5-5---9-7-5--2-2---2-2---2-2---2-2---|-5-5---5-5-5--5-5---5-5-5--2-2---2-2---2-2---2-2---|
---------------------|---------------------|---------------------|-2-2-2-2-2-2-4-4-4-5-|-1-1-1-1-1-1-1-1-1-1-|---------------------|
Verse 2: (Same as Verse 1)-----------------------------------------------------|-------------------------------------------------3---|-7---7-7-7-7-7---7-7-7-7-------------------------4---|-7---7-7-7-7-7---7-7-7-7-2---2-2-2-2-2---2-2-2-2-4---|-9---9-9-9-9-9---9-9-9-9-2---2-2-2-2-2---2-2-2-2-2---|-------------------------2---2-2-2-2-2---2-2-2-2-----|
-----------------------------------------------------|-3-3-3-3-3---3-3-3-3-3---3-3-3-3-3---3-3-3-3-2-------|-4-4-4-4-4---4-4-4-4-4---4-4-4-4-4---4-4-4-4-0-------|-4-4-4-4-4---4-4-4-4-4---4-4-4-4-4---4-4-4-4-0-------|-2-2-2-2-2---2-2-2-2-2---2-2-2-2-2---2-2-2-2-0-------|
-----------------------------------------------------|---------------------3---3-3-3-3-3---3-3-3-3---------|-2-2-2-2-2---2-2-2-2-4---4-4-4-4-4---4-4-4-4---------|-0-0-0-0-0---0-0-0-0-4---4-4-4-4-4---4-4-4-4-9-------|-0-0-0-0-0---0-0-0-0-2---2-2-2-2-2---2-2-2-2-7-------|-0-0-0-0-0---0-0-0-0-------------------------6-------|
-----------------------------------------------------|-----------------------------------------------------|---------------------------------------------7-------|-9-9-9-9-9---9-9-9-9-9---9-9-9-9-9---9-9-9-9-7-------|-7-7-7-7-7---7-7-7-7-5---5-5-5-5-5---5-5-5-5-9-------|-6-6-6-6-6---6-6-6-6-5---5-5-5-5-5---5-5-5-5---------|
-----------------------------------------------------|---------------------------------------------3-------|-7-7-7-7-7---7-7-7-7-------------------------4-------|-7-7-7-7-7---7-7-7-7-2---2-2-2-2-2---2-2-2-2-4-------|-9-9-9-9-9---9-9-9-9-2---2-2-2-2-2---2-2-2-2-2-------|---------------------2---2-2-2-2-2---2-2-2-2---------|
-----------------------------------------------------|-3-3-3-3-3---3-3-3-3-3---3-3-3-3-3---3-3-3-3-2-------|-4-4-4-4-4---4-4-4-4-4---4-4-4-4-4---4-4-4-4-0-------|-4-4-4-4-4---4-4-4-4-4---4-4-4-4-4---4-4-4-4-0-------|-2-2-2-2-2---2-2-2-2-2---2-2-2-2-2---2-2-2-2-0-------|
-----------------------------------------------------|---------------------3---3-3-3-3-3---3-3-3-3---------|-2-2-2-2-2---2-2-2-2-4---4-4-4-4-4---4-4-4-4---------|-0-0-0-0-0---0-0-0-0-4---4-4-4-4-4---4-4-4-4-9-------|-0-0-0-0-0---0-0-0-0-2---2-2-2-2-2---2-2-2-2-7-------|-0-0-0-0-0---0-0-0-0-------------------------6-------|
-----------------------------------------------------|-----------------------------------------------------|-----------------------------------------------------|-9-9-9-9-9---9-9-9-9-9---9-9-9-9-9---9-9-9-9-9-------|-7-7-7-7-7---7-7-7-7-7---7-7-7-7-7---7-7-7-7-5-------|-6-6-6-6-6---6-6-6-6-6---6-6-6-6-6---6-6-6-6-5-------|
-----------------------|-----------------------|-----------------------|-9-9-9-9-9---9-9-9-9-9-|-5-5-5-5-5---5-5-5-5-5-|-5-5-5-5-5---5-5-5-5-5-|
Chorus 2:---------------------------------------------------|---------------------------------------------------|---------------------------------------------------|-9-7----------9-7----------8-8---8-8---8-8---8-8---|-5-5---9-7-5--5-5---9-7-5--8-8---8-8---8-8---8-8---|-5-5---5-5-5--5-5---5-5-5--8-8---8-8---8-8---8-8---|
---------------------------------------------------|---------------------------------------------------|---------------------------------------------------|-9-7----------9-7----------2-2---2-2---2-2---2-2---|-5-5---9-7-5--5-5---9-7-5--2-2---2-2---2-2---2-2---|-5-5---5-5-5--5-5---5-5-5--2-2---2-2---2-2---2-2---|
---------------------------------------------------|---------------------------------------------------|---------------------------------------------------|-9-7----------9-7----------8-8---8-8---8-8---8-8---|-5-5---9-7-5--5-5---9-7-5--8-8---8-8---8-8---8-8---|-5-5---5-5-5--5-5---5-5-5--8-8---8-8---8-8---8-8---|
---------------------------------------------------|---------------------------------------------------|---------------------------------------------------|-9-7----------9-7----------2-2---2-2---2-2---2-2---|-5-5---9-7-5--5-5---9-7-5--2-2---2-2---2-2---2-2---|-5-5---5-5-5--5-5---5-5-5--2-2---2-2---2-2---2-2---|
---------------------------------------------------|---------------------------------------------------|---------------------------------------------------|-2-2-2-2-2-2-4-4-4-5-5-5-9-9-9-9-9-9-9-9-9-9-9-9---|-1-1-1-1-1-1-1-1-1-1-1-1-5-5-5-5-5-5-7-7-7-7-7-7---|-------------------------5-5-5-5-5-5-5-5-5-5-5-5---|
Bridge:---------------------------------------------------------|---------------------------------7-7-7-7-7-7-7-7-7-7-7-7-|---------------------------------7-7-7-7-7-7-7-7-7-7-7-7-|---------------------------------7-7-7-7-7-7-7-7-7-7-7-7-|-9/12--9-9/12--9-9/12--9-9/12----------------------------|-0-----0-0-----0-0-----0-0-----0-9-9-9-9-9-9-9-9-9-9-9-9-|
---------------------------------------------------------|---------------------------------------------------------|---------------------------------------------------------|-4-5-2-4-5-2-4-5-2-4-5-2-9-9-9-9-9-9-9-9-9-9-9-9---------|-2-2-2-2-2-2-2-2-2-2-2-2-5-5-5-5-5-5-7-7-7-7-7-7---------|-2-2-2-2-2-2-2-2-2-2-2-2-5-5-5-5-5-5-5-5-5-5-5-5---------|
---------------------------------------------------------|-7-7-7-7-7-7-7-7-7-7-7-7-7-7-7-7-7-7-7-7-7-7-7-7---------|-7-7-7-7-7-7-7-7-7-7-7-7-7-7-7-7-7-7-7-7-7-7-7-7---------|-7-7-7-7-7-7-7-7-7-7-7-7-9-9-9-9-9-9-9-9-9-9-9-9---------|-------------------------9-9-9-9-9-9-9-9-9-9-9-9---------|-9-9-9-9-9-9-9-9-9-9-9-9-8-8-8-8-8-8-8-8-8-8-8-8---------|
---------------------------------------------------------|---------------------------------------------------------|---------------------------------------------------------|-12-12-12-12-12-12-12-12-12-12-12-12-9-9-9-9-9-9-9-9-9-9-|-9--9--9--9--9--9--9--9--9--9--9--9--7-7-7-7-7-7-7-7-7-7-|-7--7--7--7--7--7--7--7--7--7--7--7--6-6-6-6-6-6-6-6-6-6-|
-----------------------------|-----------------------------|-----------------------------|-9----7----5----7----9----11-|-5----4----2----4----5----7--|-5----4----2----4----5----7--|
Verse 3:
-----------------------------------------------------|-------------------------------------------------3---|-7---7-7-7-7-7---7-7-7-7-------------------------4---|-7---7-7-7-7-7---7-7-7-7-2---2-2-2-2-2---2-2-2-2-4---|-9---9-9-9-9-9---9-9-9-9-2---2-2-2-2-2---2-2-2-2-2---|-------------------------2---2-2-2-2-2---2-2-2-2-----|
-----------------------------------------------------|-3-3-3-3-3---3-3-3-3-3---3-3-3-3-3---3-3-3-3-2-------|-4-4-4-4-4---4-4-4-4-4---4-4-4-4-4---4-4-4-4-0-------|-4-4-4-4-4---4-4-4-4-4---4-4-4-4-4---4-4-4-4-0-------|-2-2-2-2-2---2-2-2-2-2---2-2-2-2-2---2-2-2-2-0-------|
-----------------------------------------------------|---------------------3---3-3-3-3-3---3-3-3-3---------|-2-2-2-2-2---2-2-2-2-4---4-4-4-4-4---4-4-4-4---------|-0-0-0-0-0---0-0-0-0-4---4-4-4-4-4---4-4-4-4-9-------|-0-0-0-0-0---0-0-0-0-2---2-2-2-2-2---2-2-2-2-7-------|-0-0-0-0-0---0-0-0-0-------------------------6-------|
-----------------------------------------------------|-----------------------------------------------------|-----------------------------------------------------|-9-9-9-9-9---9-9-9-9-9---9-9-9-9-9---9-9-9-9-9-------|-7-7-7-7-7---7-7-7-7-7---7-7-7-7-7---7-7-7-7-5-------|-6-6-6-6-6---6-6-6-6-6---6-6-6-6-6---6-6-6-6-5-------|
Tap to rate this tab
 
# A B C D E F G H I J K L M N O P Q R S T U V W X Y Z