Emmett Rik – Fantasy Serenade tab

 fantaisie serenade  tab by rik emmett,   triumph

classical guitar

this song is played with the 6th string tune down  re

|-5-------5--3-2h-----3--5-7\----5------------------||--------3-----------0----------3-----3---3---------||-------2-----------0----------2----2---------------||------0-----------0----------0---------4----4p0----||-----0-----------2---------------------------------||----0----------------------------------------------|
|---5-------5--3-2h----3--5-7\------5-------||-3--------3----------0------------2--------||---------2----------0------------2---------||--------0----------0------------2----------||-------0----------2------------0-----------||------0------------------------------------|
|---------------------------------||---------------------------------||--2h4p2p0------------------------||------------2h4p2p0--------------||----------------------2h4p2p0----||---------------------------------|
|-5--5-----------7-----9/10\---5-----5p0-----------2--||------7---8\------8-------------7--------------------||--------7-----------7-------------7--------3----4----||----0-----------0-------------0------------4--4------||-----------------------------------------2-----------||-----------------------------------------------------|
|-----------0------------------------------------||-8-8p7-----3-3-3-2---3--------------------------||-9----9\---2------------------------------------||-9-----------------0-------7-4h7p4--7p4p0-------||-7---------0~~~~~~~~~~~~~~~~~~~~~~~~~~~~~-------||------------------------------------------------|
|------------2---0----------------------0----2\--4-----||--3-3-----5-------2----3p2-----0---------0----0-------||------4-------------2------2-----1---1------2\--4-----||--------4--------------------------2------------------||----2-----------0-------------------------------------||-------------------------------2----------------------|
|------------2---0--------------------0-----------||--3-3-----5-------2----3p2-----0---------0-------||------4-------------2------2-----1---------------||--------4--------------------------2---2---------||----2-----------0--------------------------------||-------------------------------2-----------2-----|
|-5-5-----------3-----5\7--5-----5-2----------2-----||-----7---8p7-----3----------3--------3-------------||-------7-----------4----------2--------4---4-------||---0-----------0----------0--------------4---------||-------------------------------------2-------------||---------------------------------------------------|
|-----3-3p2---------0-------------------------------------||----5------5------3--3-3-2---3---------------------<7>---||---4-------------2--------------------------------<7>----||-2--------------2----------0---------------------<7>-----||---------------0------------------0----------------------||--------------------------------------4----0-------------|
|-----2--3h5p3p2--------3---------0--2-2h3p2p0-------2----||---3-----------------5----------2-----------------3------||-4-----------------------------2-------------------------||-------------------2----------2-----------------0--------||-----------------------------0---------------------------||---------------------------------------------------------|
|----------2-------0--------------------2------||-----3--5---3----2--3-2h3p2p0----2------------||---4------------2---------------3--3----------||-5-------------2---------------4----4---------||----------------------------------------------||----------------------------------------------|
|-------2--3--------0-------2--------------0--0-----0-||---3--------5--------2-------3-------0----0----0-----||-----4--------4/-------2\------2-------0---------0---||-4--------2----------------0-------0---------2-------||-------------------0---------------------------------||-----------------------------------------------------|
|-2-------2------3-----3\5--5-----5-5-3-2h3p2p0-3-----3--||-----------2------0----------2-------------------3------||---3---3------------0----------2-------------------4----||-----4----------2------------------0-----------0--------||-4-------------------------0----------------------------||--------------------------------------------------------|
|----3\-----6\-----9\-----12\-----||---2\-----5\-----8\-----11\------||--3\-----6\-----9\-----12\-------||-2\-----5\-----8\-----11\--------||---------------------------------||---------------------------------|
|-10p7----------------||-----10p7------------||---------9p7---------||------------9p7------| x 4|---------------------||-0-------------------|
|-8p5-----------------||----8p5--------------||-------7p5-----------||----------7p5--------| x 4|-0-------------------||---------------------|
|-10p7----------------||-----10p7------------||---------9p7---------||------------9p7------| x 4|---------------------||-0-------------------|
|-8p5-----------------||----8p5--------------||-------7p5-----------||----------7p5--------| x 4|-0-------------------||---------------------|
play in flamenco
|------2-2--------2-2--------3-----0-0---h2-----0h2----0h2---||-----3---3------3---3------3-----3---3--------3------3------||----2-----2----2-----2----2-----2-----2------2------2-------||---0-------0--0-------0--0-----0-------0----0------0--------||------------------------------------------------------------||-0----------------------------------------------------------|
|------5-5--------5-5--------6-6-----0-----5p0----5p0---||-----6---6------6---6------6-------6-----6------6------||----5-----5----5-----5----5-------5-----5------5-------||---0-------0--0-------0--0-------0-----0------0--------||-0-----------------------------------------------------||-------------------------------------------------------|
|------7-7--------7-7-------7-----8-8-----0-----7p0-----7p0--||-----8---8------8---8-----8-----8-------8-----8-------8-----||----7-----7----7-----7---7-----7-------7-----7-------7------||---0-------0--0-------0-0-----0-------0-----0-------0-------||------------------------------------------------------------||-0----------------------------------------------------------|
|------10-10------10-10------10-------12-12------12-12------12---||-----11---11----11---11----11-------13---13----13---13----13----||----10-----10--10-----10--10-------12-----12--12-----12--12-----||-0-------------0----------0-----0-------------0----------0------||----------------------------------------------------------------||----------------------------------------------------------------|
|------14-14------14-14\----------12-12------12-12\-------||-----15---15----15---15\--------13---13----13---13\------||----14-----14--14-----14\------12-----12--12-----12\-----||---0----------0---------------0-----------0--------------| x 2|--0------------------------0-----------------------------||-0-------------------------------------------------------|
very fast
|---------14-14---------14---||--------15---15-------15----||-------14-----14-----14-----||------0--------0----0-------| x 3|-----0----------0---0-------||-0--0------------0-0--------|
very very fast strong strong
|------14-14--------------|-------14--|------14--||-----15---15-------------|------15---|-----15---||----14-----14----x 18----|-----14----|----14----||---0--------0------------|-----0-----|----0-----||--0----------0-----------|----0------|---0------||-0------------0----------|---0-------|--0-------|
|------10------||-----7--------||----9---------||---0----------|fine|--0-----------||-0------------|
steve,,,, pompom@sympatico.ca pompom020366@sympatico.ca
Please rate this tab:
x1.0