Emmure – Solar Flare Homicide tab ver. 3

Tuning: Drop CI figured this out by ear. I learn it in Drop C. I know Emmure does a lot of their songs in Drop A, but do people really look into that? I sounds great in drop C. Look at the other tabs.. they're rubish. Might as well try this one, right ?When I put the lyrics, it will mean those lyrics start at the riff that starts ABOVE the lyrics.|------------------------------------------------------------||------------------------------------------------------------||------------------------------------------------------------||------------------------------------------------------------||------------------------------------------------------------||--888---------8888777----8888777---888888-33333355555555----|I see a fire in the sky....
This first 888 part comes the very millasecond the song starts. Look for it, it's easy to miss.
....|------------------------------------------------------------||------------------------------------------------------------||------------------------------------------------------------||------------------------------------------------------------||--0000------00--00------------00--00--0---------------------||--0000--0---00--00--8888777---00--00--0-----8888777---------| .... .. .. .. .. .
|------------------------------------------------------------||------------------------------------------------------------||------------------------------------------------------------||------------------------------------------------------------||---00--00--0------------------------------------------------||---00--00--0-----8888888-33333355555555---------------------| .. .. .
|------------------------------------------------------------||------------------------------------------------------------||------------------------------------------------------------||------------------------------------------------------------||--0000--0---00--00------------00--00--0---------------------||--0000--0---00--00--8888777---00--00--0-----8888777---------| .... . .. .. .. .. .
Notice the Palm mute on the at the start, compare it to the similar riff, the first one. Whenever it this riff opens from a DIFFERENT riff, it is open and only on the low E string. If it's after the same riff, it is just a E and A open palm mute like everything else. Lights..go out..
|------------------------------------------------------------||------------------------------------------------------------||------------------------------------------------------------||------------------------------------------------------------||---00--00--0------------------------------------------------||---00--00--0-----8888888-33333355555555---------------------| .. .. .Im gonna finish.........What I started.
|------------------------------------------------------------||------------------------------------------------------------||------------------------------------------------------------||------------------------------------------------------------||--0000--0---00--00------------00--00--0---------------------||--0000--0---00--00--8888777---00--00--0-----8888777---------| .... . .. .. .. .. .LIGHTS...GO OUT
|------------------------------------------------------------||------------------------------------------------------------||------------------------------------------------------------||------------------------------------------------------------||---00--00--0------------------------------------------------||---00--00--0-----8888888-33333355555555---------------------| .. .. .And now you'd better pray, I don't know where you....
|------------------------------------------------------------||------------------------------------------------------------||------------------------------------------------------------||---------------------------------------------0--------------||---11-11-0-----11-11-0----11-11-0------0-0---0--------------||---11-11-0-----11-11-0----11-11-0------0-0------------------| .. .. . .. .. . .. .. . . .ARE.....
|------------------------------------------------------------||------------------------------------------------------------||------------------------------------------------------------||------------------------------------------------------------||---11-11-0-----11-11-0----11-11-0------22222222-------------||---11-11-0-----11-11-0----11-11-0------22222222-------------| .. .. . .. .. . .. .. . ........
|------------------------------------------------------------||------------------------------------------------------------||------------------------------------------------------------||---------------------------------------------0--------------||---11-11-0-----11-11-0----11-11-0------0-0---0--------------||---11-11-0-----11-11-0----11-11-0------0-0------------------| .. .. . .. .. . .. .. . . .
|------------------------------------------------------------||------------------------------------------------------------||------------------------------------------------------------||------------------------------------------------------------||---11-11-0-----11-11-0----11-11-0---------------------------||---11-11-0-----11-11-0----11-11-0---------------------------| .. .. . .. .. . .. .. .
*Empty space* Do you remember?
|------------------------------------------------------------||------------------------------------17----17----------------||------------------------------------22----22----------------||------------------------------------------------------------||------------------------------------------------------------||----Open Palm mutes.No real pattern-------------------------|
I've been trying..............to remind you Palm muting pattern again. Open palm mutes
|------------------------------------------------------------||------------------------------------------------------------||------------------------------------------------------------||------------------------------------------------------------||---11-11-0-----11-11-0----11-11-0------11-11-0--------------||---11-11-0-----11-11-0----11-11-0------11-11-0--------------| .. .. . .. .. . .. .. . .. .. .
To....re...mind...you|------------------------------------------------------------||------------------------------------------------------------||------------------------------------------------------------||------------------------------------------------------------||---11-11-0-----11-11-0----11-11-0---------------------------||---11-11-0-----11-11-0----11-11-0---------------------------|
|------------------------------------------------------------||------------------------------------------------------------||------------------------------------------------------------||------------------------------------------------------------||----0-------0-------0-------0-------------------------------||----1-------1-------1-------1-------------------------------| . . . .No way it's gonna be a jail sentence
|------------------------------------------------------------||------------------------------------------------------------||------------------------------------------------------------||------------------------------------------------------------||----0-------0-------0-------0-------------------------------||----1-------1-------1-------1-------------------------------| . . . .No..more...fucking..consequence
|------------------------------------------------------------||------------------------------------------------------------||------------------------------------------------------------||------------------------------------------------------------||---0-0-0-0-0--00000---0---00--------------------------------||---1-1-1-1-1--11111---1---11--------------------------------|
. . . . . ..... . ..OH!|------------------------------------------------------------||------------------------------------------------------------||------------------------------------------------------------||------------------------------------------------------------||---0-0-0-0-0--00000---0---0-1-------------------------------||---1-1-1-1-1--11111---1---1-1-------------------------------| . . . . . ..... . . BEND
|------------------------------------------------------------||------------------------------------------------------------||------------------------------------------------------------||------------------------------------------------------------||---1-1-1-1-1--11111---1---11--------------------------------||---1-1-1-1-1--11111---1---11--------------------------------| . . . . . ..... . ..
|------------------------------------------------------------||------------------------------------------------------------||------------------------------------------------------------||------------------------------------------------------------||---1-1-1-1-1--11111---1---11--------------------------------||---1-1-1-1-1--11111---1---11--------------------------------| . . . . . ..... . ..
|------------------------------------------------------------||------------------------------------------------------------||------------------------------------------------------------||------------------------------------------------------------||--0000------00--00------------00--00--0---------------------||--0000--0---00--00--8888777---00--00--0-----8888777---------| .... .. .. .. .. .I see a fire in the sky...
|------------------------------------------------------------||------------------------------------------------------------||------------------------------------------------------------||------------------------------------------------------------||---00--00--0------------------------------------------------||---00--00--0-----8888888-33333355555555---------------------| .. .. .
|------------------------------------------------------------||------------------------------------------------------------||------------------------------------------------------------||------------------------------------------------------------||--0000--0---00--00------------00--00--0---------------------||--0000--0---00--00--8888777---00--00--0-----8888777---------| .... . .. .. .. .. .And now you'd better pray...
|------------------------------------------------------------||------------------------------------------------------------||------------------------------------------------------------||------------------------------------------------------------||---00--00--0------------------------------------------------||---00--00--0-----8888888-33333355555555---------------------| .. .. .I don't know where you are..
|------------------------------------------------------------||------------------------------------------------------------||------------------------------------------------------------||--------------------1---------------------------------------||---0--------4-----4-1BEND----0----------4-----4-1-----------||---0----------5-4------------0------------5-4---1BEND-------|
(Riff at 2:06) That's all the riffs in the song. My Youtube account is youtube.com/moepippy. I you've found this tab helpful, please rate it here or drop by my YouTube page and send me a comment/message.
Please rate this tab:
x1.0