Emperor - Into The Infinity Of Thoughts tab

Song : Into the Inifinity of Thoughts
Album: In their Nightside Eclipse
Artist: Emperor

Mostly all 16th Notes
Play around 150-170 Tempo
Arranged to play fully through

Standard Tuning e B G D A E


I may add the Ishan Parts later on but this is Samoth's part



E||------------------0-0-0-0---------|------------------0-0-0-0---------|B||----------------------------------|----------------------------------|G||----------------------------------|----------------------------------|D||----------2-2-2-2---------2-2-2-2-|----------2-2-2-2---------2-2-2-2-|A||--0-0-0-0-------------------------|--0-0-0-0-------------------------|E||----------------------------------|----------------------------------|
----------------------------------|----------------------------------|------------------0-0-0-0---------|------------------0-0-0-0---------|----------------------------------|----------------------------------|----------------------------------|----------------------------------|--0-0-0-0-2-2-2-2---------2-2-2-2-|--0-0-0-0-2-2-2-2---------2-2-2-2-|----------------------------------|----------------------------------|
----------------------------------|----------------------------------|------------------1-1-1-1---------|------------------1-1-1-1---------|----------------------------------|----------------------------------|----------------------------------|----------------------------------|--0-0-0-0-3-3-3-3---------3-3-3-3-|--0-0-0-0-3-3-3-3---------3-3-3-3-|----------------------------------|----------------------------------|
----------------------------------|----------------------------------|------------------3-3-3-3---------|------------------3-3-3-3---------|----------------------------------|----------------------------------|----------0-0-0-0---------0-0-0-0-|----------0-0-0-0---------0-0-0-0-|--0-0-0-0-------------------------|--0-0-0-0-------------------------|----------------------------------|----------------------------------|
------------------0-0-0-0---------|------------------0-0-0-0---------|----------------------------------|----------------------------------|----------------------------------|----------------------------------|----------2-2-2-2---------2-2-2-2-|----------2-2-2-2---------2-2-2-2-|--0-0-0-0-------------------------|--0-0-0-0-------------------------|----------------------------------|----------------------------------|
----------------------------------|----------------------------------|------------------0-0-0-0---------|------------------0-0-0-0---------|----------------------------------|----------------------------------|----------------------------------|----------------------------------|--0-0-0-0-2-2-2-2---------2-2-2-2-|--0-0-0-0-2-2-2-2---------2-2-2-2-|----------------------------------|----------------------------------|
----------------------------------|----------------------------------|------------------1-1-1-1---------|------------------1-1-1-1---------|----------------------------------|----------------------------------|----------------------------------|----------------------------------|--0-0-0-0-3-3-3-3---------3-3-3-3-|--0-0-0-0-3-3-3-3---------3-3-3-3-|----------------------------------|----------------------------------|
----------------------------------|----------------------------------|------------------3-3-3-3---------|------------------3-3-3-3---------|----------------------------------|----------------------------------|----------0-0-0-0---------0-0-0-0-|----------0-0-0-0---------0-0-0-0-|--0-0-0-0-------------------------|--0-0-0-0-------------------------|----------------------------------|----------------------------------|
----------------------------------|----------------------------------|----------------------------------|----------------------------------|----------------------------------|----------------------------------|----------------------------------|----------------------------------|--0-0-0-0-0-0-0-0-0-0-0-0-0-0-0-0-|--0-0-0-0-0-0-0-0-0-0-0-0-0-0-0-0-|--5-5-5-5-5-5-5-5-5-5-5-5-5-5-5-5-|--5-5-5-5-5-5-5-5-5-5-5-5-5-5-5-5-|
----------------------------------|----------------------------------|----------------------------------|----------------------------------|----------------------------------|----------------------------------|----------------------------------|----------------------------------|--0-0-0-0-0-0-0-0-0-0-0-0-0-0-0-0-|--0-0-0-0-0-0-0-0-0-0-0-0-0-0-0-0-|--7-7-7-7-7-7-7-7-7-7-7-7-7-7-7-7-|--7-7-7-7-7-7-7-7-7-7-7-7-7-7-7-7-|
----------------------------------|----------------------------------|----------------------------------|----------------------------------|----------------------------------|----------------------------------|----------------------------------|----------------------------------|--0-0-0-0-0-0-0-0-0-0-0-0-0-0-0-0-|--0-0-0-0-0-0-0-0-0-0-0-0-0-0-0-0-|--8-8-8-8-8-8-8-8-8-8-8-8-8-8-8-8-|--8-8-8-8-8-8-8-8-8-8-8-8-8-8-8-8-|
----------------------------------|----------------------------------|----------------------------------|----------------------------------|----------------------------------|----------------------------------|--0-0-0-0-0-0-0-0-0-0-0-0-0-0-0-0-|--0-0-0-0-0-0-0-0-0-0-0-0-0-0-0-0-|--0-0-0-0-0-0-0-0-0-0-0-0-0-0-0-0-|--0-0-0-0-0-0-0-0-0-0-0-0-0-0-0-0-|----------------------------------|----------------------------------|
----------------------------------|----------------------------------|----------------------------------|----------------------------------|----------------------------------|----------------------------------|----------------------------------|----------------------------------|--0-0-0-0-0-0-0-0-0-0-0-0-0-0-0-0-|--0-0-0-0-0-0-0-0-0-0-0-0-0-0-0-0-|--5-5-5-5-5-5-5-5-5-5-5-5-5-5-5-5-|--5-5-5-5-5-5-5-5-5-5-5-5-5-5-5-5-|
----------------------------------|----------------------------------|----------------------------------|----------------------------------|----------------------------------|----------------------------------|----------------------------------|----------------------------------|--0-0-0-0-0-0-0-0-0-0-0-0-0-0-0-0-|--0-0-0-0-0-0-0-0-0-0-0-0-0-0-0-0-|--7-7-7-7-7-7-7-7-7-7-7-7-7-7-7-7-|--7-7-7-7-7-7-7-7-7-7-7-7-7-7-7-7-|
----------------------------------|----------------------------------|----------------------------------|----------------------------------|----------------------------------|----------------------------------|----------------------------------|----------------------------------|--0-0-0-0-0-0-0-0-0-0-0-0-0-0-0-0-|--0-0-0-0-0-0-0-0-0-0-0-0-0-0-0-0-|--8-8-8-8-8-8-8-8-8-8-8-8-8-8-8-8-|--8-8-8-8-8-8-8-8-8-8-8-8-8-8-8-8-|
----------------------------------|----------------------------------|----------------------------------|----------------------------------|----------------------------------|----------------------------------|--0-0-0-0-0-0-0-0-0-0-0-0-0-0-0-0-|--0-0-0-0-0-0-0-0-0-0-0-0-0-0-0-0-|--0-0-0-0-0-0-0-0-0-0-0-0-0-0-0-0-|--0-0-0-0-0-0-0-0-0-0-0-0-0-0-0-0-|----------------------------------|----------------------------------|
----------------------------------|----------------------------------|------------------1-1-1-1---------|------------------1-1-1-1---------|----------2-2-2-2---------2-2-2-2-|----------2-2-2-2---------2-2-2-2-|----------------------------------|----------------------------------|--0-0-0-0-------------------------|--0-0-0-0-------------------------|----------------------------------|----------------------------------|
----------------------------------|----------------------------------|------------------1-1-1-1---------|------------------1-1-1-1---------|----------1-1-1-1---------1-1-1-1-|----------0-0-0-0---------0-0-0-0-|----------------------------------|----------------------------------|--0-0-0-0-------------------------|--0-0-0-0-------------------------|----------------------------------|----------------------------------|
----------------------------------|----------------------------------|----------------------------------|----------------------------------|------------------5-5-5-5---------|------------------5-5-5-5---------|----------4-4-4-4---------4-4-4-4-|----------4-4-4-4---------4-4-4-4-|--0-0-0-0-------------------------|--0-0-0-0-------------------------|----------------------------------|----------------------------------|
----------------------------------|----------------------------------|------------------1-1-1-1---------|------------------1-1-1-1---------|----------2-2-2-2---------2-2-2-2-|----------2-2-2-2---------2-2-2-2-|----------------------------------|----------------------------------|--0-0-0-0-------------------------|--0-0-0-0-------------------------|----------------------------------|----------------------------------|
----------------------------------|----------------------------------|------------------1-1-1-1---------|------------------1-1-1-1---------|----------1-1-1-1---------1-1-1-1-|----------0-0-0-0---------0-0-0-0-|----------------------------------|----------------------------------|--0-0-0-0-------------------------|--0-0-0-0-------------------------|----------------------------------|----------------------------------|
----------------------------------|----------------------------------|----------------------------------|----------------------------------|------------------5-5-5-5---------|------------------5-5-5-5---------|----------4-4-4-4---------4-4-4-4-|----------4-4-4-4---------4-4-4-4-|--0-0-0-0-------------------------|--0-0-0-0-------------------------|----------------------------------|----------------------------------|
----------------------------------|----------------------------------|------------------1-1-1-1---------|------------------1-1-1-1---------|----------2-2-2-2---------2-2-2-2-|----------2-2-2-2---------2-2-2-2-|----------------------------------|----------------------------------|--0-0-0-0-------------------------|--0-0-0-0-------------------------|----------------------------------|----------------------------------|
----------------------------------|----------------------------------|------------------1-1-1-1---------|------------------1-1-1-1---------|----------1-1-1-1---------1-1-1-1-|----------0-0-0-0---------0-0-0-0-|----------------------------------|----------------------------------|--0-0-0-0-------------------------|--0-0-0-0-------------------------|----------------------------------|----------------------------------|
----------------------------------|----------------------------------|----------------------------------|----------------------------------|------------------5-5-5-5---------|------------------5-5-5-5---------|----------4-4-4-4---------4-4-4-4-|----------4-4-4-4---------4-4-4-4-|--0-0-0-0-------------------------|--0-0-0-0-------------------------|----------------------------------|----------------------------------|
----------------------------------|----------------------------------|------------------1-1-1-1---------|------------------1-1-1-1---------|----------2-2-2-2---------2-2-2-2-|----------2-2-2-2---------2-2-2-2-|----------------------------------|----------------------------------|--0-0-0-0-------------------------|--0-0-0-0-------------------------|----------------------------------|----------------------------------|
----------------------------------|----------------------------------|------------------1-1-1-1---------|------------------1-1-1-1---------|----------1-1-1-1---------1-1-1-1-|----------0-0-0-0---------0-0-0-0-|----------------------------------|----------------------------------|--0-0-0-0-------------------------|--0-0-0-0-------------------------|----------------------------------|----------------------------------|
----------------------------------|----------------------------------|----------------------------------|----------------------------------|------------------5-5-5-5---------|------------------5-5-5-5---------|----------4-4-4-4---------4-4-4-4-|----------4-4-4-4---------4-4-4-4-|--0-0-0-0-------------------------|--0-0-0-0-------------------------|----------------------------------|----------------------------------|
----------------------------------|----------------------------------|------------------1-1-1-1---------|------------------1-1-1-1---------|----------0-0-0-0---------0-0-0-0-|----------1-1-1-1---------1-1-1-1-|----------------------------------|----------------------------------|--0-0-0-0-------------------------|--0-0-0-0-------------------------|----------------------------------|----------------------------------|
------------------0-0-0-0---------|------------------0-0-0-0---------|----------------------------------|----------------------------------|----------------------------------|----------------------------------|----------2-2-2-2---------2-2-2-2-|----------2-2-2-2---------2-2-2-2-|--0-0-0-0-------------------------|--0-0-0-0-------------------------|----------------------------------|----------------------------------|
----------------------------------|----------------------------------|------------------0-0-0-0---------|------------------0-0-0-0---------|----------------------------------|----------------------------------|----------------------------------|----------------------------------|--0-0-0-0-2-2-2-2---------2-2-2-2-|--0-0-0-0-2-2-2-2---------2-2-2-2-|----------------------------------|----------------------------------|
----------------------------------|----------------------------------|------------------1-1-1-1---------|------------------1-1-1-1---------|----------------------------------|----------------------------------|----------------------------------|----------------------------------|--0-0-0-0-3-3-3-3---------3-3-3-3-|--0-0-0-0-3-3-3-3---------3-3-3-3-|----------------------------------|----------------------------------|
----------------------------------|----------------------------------|------------------3-3-3-3---------|------------------3-3-3-3---------|----------------------------------|----------------------------------|----------0-0-0-0---------0-0-0-0-|----------0-0-0-0---------0-0-0-0-|--0-0-0-0-------------------------|--0-0-0-0-------------------------|----------------------------------|----------------------------------|
------------------0-0-0-0---------|------------------0-0-0-0---------|----------------------------------|----------------------------------|----------------------------------|----------------------------------|----------2-2-2-2---------2-2-2-2-|----------2-2-2-2---------2-2-2-2-|--0-0-0-0-------------------------|--0-0-0-0-------------------------|----------------------------------|----------------------------------|
----------------------------------|----------------------------------|------------------0-0-0-0---------|------------------0-0-0-0---------|----------------------------------|----------------------------------|----------------------------------|----------------------------------|--0-0-0-0-2-2-2-2---------2-2-2-2-|--0-0-0-0-2-2-2-2---------2-2-2-2-|----------------------------------|----------------------------------|
----------------------------------|----------------------------------|------------------1-1-1-1---------|------------------1-1-1-1---------|----------------------------------|----------------------------------|----------------------------------|----------------------------------|--0-0-0-0-3-3-3-3---------3-3-3-3-|--0-0-0-0-3-3-3-3---------3-3-3-3-|----------------------------------|----------------------------------|
----------------------------------|----------------------------------|------------------3-3-3-3---------|------------------3-3-3-3---------|----------------------------------|----------------------------------|----------0-0-0-0---------0-0-0-0-|----------0-0-0-0---------0-0-0-0-|--0-0-0-0-------------------------|--0-0-0-0-------------------------|----------------------------------|----------------------------------|
----------------------------------|----------------------------------|----------------------------------|----------------------------------|----------------------------------|----------------------------------|----------------------------------|----------------------------------|--0-0-0-0-0-0-0-0-0-0-0-0-0-0-0-0-|--0-0-0-0-0-0-0-0-0-0-0-0-0-0-0-0-|--5-5-5-5-5-5-5-5-5-5-5-5-5-5-5-5-|--5-5-5-5-5-5-5-5-5-5-5-5-5-5-5-5-|
----------------------------------|----------------------------------|----------------------------------|----------------------------------|----------------------------------|----------------------------------|----------------------------------|----------------------------------|--0-0-0-0-0-0-0-0-0-0-0-0-0-0-0-0-|--0-0-0-0-0-0-0-0-0-0-0-0-0-0-0-0-|--7-7-7-7-7-7-7-7-7-7-7-7-7-7-7-7-|--7-7-7-7-7-7-7-7-7-7-7-7-7-7-7-7-|
----------------------------------|----------------------------------|----------------------------------|----------------------------------|----------------------------------|----------------------------------|----------------------------------|----------------------------------|--0-0-0-0-0-0-0-0-0-0-0-0-0-0-0-0-|--0-0-0-0-0-0-0-0-0-0-0-0-0-0-0-0-|--8-8-8-8-8-8-8-8-8-8-8-8-8-8-8-8-|--8-8-8-8-8-8-8-8-8-8-8-8-8-8-8-8-|
----------------------------------|----------------------------------|----------------------------------|----------------------------------|----------------------------------|----------------------------------|--0-0-0-0-0-0-0-0-0-0-0-0-0-0-0-0-|--0-0-0-0-0-0-0-0-0-0-0-0-0-0-0-0-|--0-0-0-0-0-0-0-0-0-0-0-0-0-0-0-0-|--0-0-0-0-0-0-0-0-0-0-0-0-0-0-0-0-|----------------------------------|----------------------------------|
----------------------------------|----------------------------------|----------------------------------|----------------------------------|----------------------------------|----------------------------------|----------------------------------|----------------------------------|--0-0-0-0-0-0-0-0-0-0-0-0-0-0-0-0-|--0-0-0-0-0-0-0-0-0-0-0-0-0-0-0-0-|--5-5-5-5-5-5-5-5-5-5-5-5-5-5-5-5-|--5-5-5-5-5-5-5-5-5-5-5-5-5-5-5-5-|
----------------------------------|----------------------------------|----------------------------------|----------------------------------|----------------------------------|----------------------------------|----------------------------------|----------------------------------|--0-0-0-0-0-0-0-0-0-0-0-0-0-0-0-0-|--0-0-0-0-0-0-0-0-0-0-0-0-0-0-0-0-|--7-7-7-7-7-7-7-7-7-7-7-7-7-7-7-7-|--7-7-7-7-7-7-7-7-7-7-7-7-7-7-7-7-|
----------------------------------|----------------------------------|----------------------------------|----------------------------------|----------------------------------|----------------------------------|----------------------------------|----------------------------------|--0-0-0-0-0-0-0-0-0-0-0-0-0-0-0-0-|--0-0-0-0-0-0-0-0-0-0-0-0-0-0-0-0-|--8-8-8-8-8-8-8-8-8-8-8-8-8-8-8-8-|--8-8-8-8-8-8-8-8-8-8-8-8-8-8-8-8-|
----------------------------------|----------------------------------|----------------------------------|----------------------------------|----------------------------------|----------------------------------|--0-0-0-0-0-0-0-0-0-0-0-0-0-0-0-0-|--0-0-0-0-0-0-0-0-0-0-0-0-0-0-0-0-|--0-0-0-0-0-0-0-0-0-0-0-0-0-0-0-0-|--0-0-0-0-0-0-0-0-0-0-0-0-0-0-0-0-|----------------------------------|----------------------------------|
------------------|------------------|----------------------------------|------------------|------------------|----------------------------------|------------------|------------------|----------------------------------|------------------|------------------|--------------------------4-4-----|------------------|------------------|----------4-4---------------------|------------------|------------------|--0-0-2-2-----2-2-0-0-2-2-----2-2-|
----------------------------------|----------------------------------|----------------------------------|----------------------------------|----------0-0---------------------|----------------------------------|----------------------------------|--------------------------4-4-----|----------------------------------|----------4-4---------------------|--0-0-2-2-----2-2-0-0-0-0-3-3-3-3-|--0-0-2-2-----2-2-0-0-2-2-----2-2-|
----------------------------------|----------------------------------|----------------------------------|----------------------------------|----------0-0---------------------|----------------------------------|----------------------------------|--------------------------4-4-----|----------------------------------|----------4-4---------------------|--0-0-2-2-----2-2-0-0-0-0-3-3-3-3-|--0-0-2-2-----2-2-0-0-2-2-----2-2-|
----------------------------------|----------------------------------|----------------------------------|----------------------------------|----------0-0---------------------|----------------------------------|----------------------------------|--------------------------4-4-----|----------------------------------|----------4-4---------------------|--0-0-2-2-----2-2-0-0-0-0-3-3-3-3-|--0-0-2-2-----2-2-0-0-2-2-----2-2-|
----------------------------------|----------------------------------|----------------------------------|----------------------------------|----------0-0---------------------|----------------------------------|----------------------------------|--------------------------4-4-----|----------------------------------|----------4-4---------------------|--0-0-2-2-----2-2-0-0-0-0-3-3-3-3-|--0-0-2-2-----2-2-0-0-2-2-----2-2-|
----------------------------------|---------------------------|----------------------------------|---------------------------|----------0-0---------------------|--3-3-3-3-3-3-3-3-2--------|----------------------------------|--1-1-1-1-1-1-1-1-0--------|----------------------------------|---------------------------|--0-0-2-2-----2-2-0-0-0-0-3-3-3-3-|---------------------------|
---------------------------|---------------------------|---------------------------|---------------------------|--3-3-3-3-3-3-3-3-2--------|--3-3-3-3-3-3-3-3-2--------|--1-1-1-1-1-1-1-1-0--------|--1-1-1-1-1-1-1-1-0--------|---------------------------|---------------------------|---------------------------|---------------------------|
---------------------------|----------------------------------|---------------------------|----------------------------------|--3-3-3-3-3-3-3-3-2--------|----------------------------------|--1-1-1-1-1-1-1-1-0--------|--------------------------4-4-----|---------------------------|----------4-4---------------------|---------------------------|--0-0-2-2-----2-2-0-0-2-2-----2-2-|
----------------------------------|----------------------------------|----------------------------------|----------------------------------|----------0-0---------------------|----------------------------------|----------------------------------|--------------------------4-4-----|----------------------------------|----------4-4---------------------|--0-0-2-2-----2-2-0-0-0-0-3-3-3-3-|--0-0-2-2-----2-2-0-0-2-2-----2-2-|
----------------------------------|----------------------------------|----------------------------------|----------------------------------|----------0-0---------------------|----------------------------------|----------------------------------|--------------------------4-4-----|----------------------------------|----------4-4---------------------|--0-0-2-2-----2-2-0-0-0-0-3-3-3-3-|--0-0-2-2-----2-2-0-0-2-2-----2-2-|
----------------------------------|----------------------------------|----------------------------------|----------------------------------|----------0-0---------------------|----------------------------------|----------------------------------|--------------------------4-4-----|----------------------------------|----------4-4---------------------|--0-0-2-2-----2-2-0-0-0-0-3-3-3-3-|--0-0-2-2-----2-2-0-0-2-2-----2-2-|
----------------------------------|---------------------------|----------------------------------|---------------------------|----------0-0---------------------|--3-3-3-3-3-3-3-3-2--------|----------------------------------|--1-1-1-1-1-1-1-1-0--------|----------------------------------|---------------------------|--0-0-2-2-----2-2-0-0-0-0-3-3-3-3-|---------------------------|
---------------------------|---------------------------|---------------------------|---------------------------|--3-3-3-3-3-3-3-3-2--------|--3-3-3-3-3-3-3-3-2--------|--1-1-1-1-1-1-1-1-0--------|--1-1-1-1-1-1-1-1-0--------|---------------------------|---------------------------|---------------------------|---------------------------|
---------------------------|----------------------------------|---------------------------|----------------------------------|--3-3-3-3-3-3-3-3-2--------|----------------------------------|--1-1-1-1-1-1-1-1-0--------|--------------------------4-4-----|---------------------------|----------4-4---------------------|---------------------------|--0-0-2-2-----2-2-0-0-2-2-----2-2-|
----------------------------------|----------------------------------|----------------------------------|----------------------------------|----------0-0---------------------|----------------------------------|----------------------------------|--------------------------4-4-----|----------------------------------|----------4-4---------------------|--0-0-2-2-----2-2-0-0-0-0-3-3-3-3-|--0-0-2-2-----2-2-0-0-2-2-----2-2-|
----------------------------------|----------------------------------|----------------------------------|------------------1-1-1-1---------|----------0-0---------------------|----------2-2-2-2---------2-2-2-2-|----------------------------------|----------------------------------|----------------------------------|--0-0-0-0-------------------------|--0-0-2-2-----2-2-0-0-0-0-3-3-3-3-|----------------------------------|
----------------------------------|----------------------------------|------------------1-1-1-1---------|------------------1-1-1-1---------|----------2-2-2-2---------2-2-2-2-|----------1-1-1-1---------1-1-1-1-|----------------------------------|----------------------------------|--0-0-0-0-------------------------|--0-0-0-0-------------------------|----------------------------------|----------------------------------|
----------------------------------|----------------------------------|------------------1-1-1-1---------|----------------------------------|----------0-0-0-0---------0-0-0-0-|------------------5-5-5-5---------|----------------------------------|----------4-4-4-4---------4-4-4-4-|--0-0-0-0-------------------------|--0-0-0-0-------------------------|----------------------------------|----------------------------------|
----------------------------------|----------------------------------|----------------------------------|------------------1-1-1-1---------|------------------5-5-5-5---------|----------2-2-2-2---------2-2-2-2-|----------4-4-4-4---------4-4-4-4-|----------------------------------|--0-0-0-0-------------------------|--0-0-0-0-------------------------|----------------------------------|----------------------------------|
----------------------------------|----------------------------------|------------------1-1-1-1---------|------------------1-1-1-1---------|----------2-2-2-2---------2-2-2-2-|----------1-1-1-1---------1-1-1-1-|----------------------------------|----------------------------------|--0-0-0-0-------------------------|--0-0-0-0-------------------------|----------------------------------|----------------------------------|
----------------------------------|----------------------------------|------------------1-1-1-1---------|----------------------------------|----------0-0-0-0---------0-0-0-0-|------------------5-5-5-5---------|----------------------------------|----------4-4-4-4---------4-4-4-4-|--0-0-0-0-------------------------|--0-0-0-0-------------------------|----------------------------------|----------------------------------|
----------------------------------|----------------------------------|----------------------------------|------------------1-1-1-1---------|------------------5-5-5-5---------|----------0-0-0-0---------0-0-0-0-|----------4-4-4-4---------4-4-4-4-|----------------------------------|--0-0-0-0-------------------------|--0-0-0-0-------------------------|----------------------------------|----------------------------------|
----------------------------------|----------------------------------|------------------1-1-1-1---------|----------------------------------|----------1-1-1-1---------1-1-1-1-|------------------2-2-2-2-2-2-2-2-|----------------------------------|----------------------------------|--0-0-0-0-------------------------|--0-0-0-0-0-0-0-0-----------------|----------------------------------|----------------------------------|
----------------------------------|----------------------------------|----------------------------------|----------------------------------|----------------------------------|------------------2-2-2-2-2-2-2-2-|--1-1-1-1-1-1-1-1-1-1-1-1-1-1-1-1-|----------------------------------|----------------------------------|--0-0-0-0-0-0-0-0-----------------|----------------------------------|----------------------------------|
----------------------------------|----------------------------------|----------------------------------|------------------0-0-0-0-0-0-0-0-|----------------------------------|----------------------------------|--1-1-1-1-1-1-1-1-1-1-1-1-1-1-1-1-|----------------------------------|----------------------------------|--2-2-2-2-2-2-2-2-----------------|----------------------------------|----------------------------------|
----------------------------------|----------------------------------|----------------------------------|------------------0-0-0-0-0-0-0-0-|----------------------------------|----------------------------------|--3-3-3-3-3-3-3-3-3-3-3-3-3-3-3-1-|----------------------------------|----------------------------------|--2-2-2-2-2-2-2-2-----------------|----------------------------------|----------------------------------|
----------------------------------|----------------------------------|----------------------------------|------------------1-1-1-1-1-1-1-1-|----------------------------------|----------------------------------|--3-3-3-3-3-3-3-3-3-3-3-3-3-3-3-1-|----------------------------------|----------------------------------|--3-3-3-3-3-3-3-3-----------------|----------------------------------|----------------------------------|
----------------------------------|----------------------------------|----------------------------------|------------------1-1-1-1-1-1-1-1-|----------------------------------|----------------------------------|--4-4-4-4-4-4-4-4-4-4-4-4-4-4-4-4-|----------------------------------|----------------------------------|--3-3-3-3-3-3-3-3-----------------|----------------------------------|----------------------------------|
----------------------------------|----------------------------------|----------------------------------|------------------3-3-3-3-3-3-3-3-|----------------------------------|----------------------------------|--4-4-4-4-4-4-4-4-4-4-4-4-4-4-4-4-|--0-0-0-0-0-0-0-0-----------------|----------------------------------|----------------------------------|----------------------------------|----------------------------------|
----------------------------------|----------------------------------|----------------------------------|------------------3-3-3-3-3-3-3-3-|--1-1-1-1-1-1-1-1-1-1-1-1-1-1-1-1-|----------------------------------|----------------------------------|--0-0-0-0-0-0-0-0-----------------|----------------------------------|----------------------------------|----------------------------------|----------------------------------|
----------------------------------|----------------------------------|----------------------------------|----------------------------------|--1-1-1-1-1-1-1-1-1-1-1-1-1-1-1-1-|----------3-3-3-3---------3-3-3-3-|----------------------------------|----------------------------------|----------------------------------|----------------------------------|----------------------------------|--0-0-0-0---------0-0-0-0---------|
--------------------------------|----------------------------------|----------------2-2-2-2---------|----------------------------------|-------------0------------------|----------3-3-3-3---------3-3-3-3-|----------3-------------3-3-3-3-|----------------------------------|--------------------------------|----------------------------------|--3-3-3-3-----------------------|--0-0-0-0---------0-0-0-0---------|
--------------------------------|----------------------------------|----------------2-2-2-2---------|----------------------------------|-------------0------------------|----------3-3-3-3---------3-3-3-3-|----------3-------------3-3-3-3-|----------------------------------|--------------------------------|----------------------------------|--3-3-3-3-----------------------|--0-0-0-0---------0-0-0-0---------|
--------------------------------|----------------------------------|----------------2-2-2-2---------|----------------------------------|-------------0------------------|----------3-3-3-3---------3-3-3-3-|----------3-------------3-3-3-3-|----------------------------------|--------------------------------|----------------------------------|--3-3-3-3-----------------------|--0-0-0-0---------0-0-0-0---------|
--------------------------|------------------------------|--------------------------|--3----3--3--3--3----3--3--3--|-------------0------------|--4----4--4--4--4----4--4--4--|----------3----------4----|--4----4--4--4--4----4--4--4--|--------------------------|--2----2--2--2--2----2--2--2--|--3-3-3-3-------2---------|------------------------------|
------------------------------|------------------------------|--3----3--3--3--2----2--2--2--|--3----3--3--3--3----3--3--3--|--2----2--2--2--3----3--3--3--|--4----4--4--4--4----4--4--4--|--4----4--4--4--4----4--4--4--|--4----4--4--4--4----4--4--4--|--5----5--5--5--4----4--4--4--|--2----2--2--2--2----2--2--2--|------------------------------|------------------------------|
------------------------------|------------------------------|--3----3--3--3--2----2--2--2--|--3----3--3--3--3----3--3--3--|--2----2--2--2--3----3--3--3--|--4----4--4--4--4----4--4--4--|--4----4--4--4--4----4--4--4--|--4----4--4--4--2----2--2--2--|--5----5--5--5--4----4--4--4--|--2----2--2--2--4----4--4--4--|------------------------------|------------------------------|
----------------0----0--0--0--|--6----6--6--6--6----4----|--0----0--0--0--0----0--0--0--|--7----7--7--7--7---------|--7----7--7--7----------------|--6----6--6--6--6---------|--0----0--0--0----------------|--4----4--4--4--4---------|--7----7--7--7--7----7--7--7--|--------------------------|----------------7----7--7--7--|--------------------------|
--4-6---4----6--------|------------------------------|-------------7--------|------------------------------|----------------------|------------------------------|----------------------|--0----0--0--0--0----0--0--0--|----------------------|------------------------------|----------------------|--3----3--3--3--3----3--3--3--|
----------------------------------|------------------------------|----------------------------------|------------------------------|----------------------------------|------------------------------|----------------0--0--0--0--0--0--|------------------------------|--2----2--2--2--------------------|--4----4--4--4--4----4--4--4--|--3----3--3--3--3--3--3--3--3--3--|--2----2--2--2--2----2--2--2--|
----------------------------------|------------------------------|----------------------------------|------------------------------|----------------------------------|------------------------------|----------------------------------|--0----0--0--0--0----0--0--0--|--4----4--4--4--4--4--4--4--4--4--|------------------------------|--2----2--2--2--2--2--2--2--2--2--|--3----3--3--3--3----3--3--3--|
----------------------------------|------------------------------|----------------------------------|------------------------------|----------------------------------|------------------------------|----------------0--0--0--0--0--0--|------------------------------|--2----2--2--2--------------------|--4----4--4--4--4----4--4--4--|--3----3--3--3--3--3--3--3--3--3--|--2----2--2--2--2----2--2--2--|
----------------------------------|--------------------------------------|----------------------------------|--------------------------------------|----------------------------------|--------------------------------------|----------------------------------|--2--2--2--3--2--2--2--2--2--3--2--2--|--4----4--4--4--4--4--4--4--4--4--|--0--0--0--0--0--0--0--0--0--0--0--0--|--2----2--2--2--2--2--2--2--2--2--|--------------------------------------|
--------------------------------------|---------------------------------------------------------------------------|---------------------------------------------------------------------------|---------------------------------------2--2--2--3--2--2--2--2--2--3--2--2--|-----------2-----------------2---------0--0--0--0--0--0--0--0--0--0--0--0--|--6--6--6-----6--6--6--6--6-----6--6---------------------------------------|--4--4--4--4--4--4--4--4--4--4--4--4-
--------------------------------------|------------------------------|--------------------------------------|------------------------------|--------------------------------------|------------------------------|-----------2-----------------2--------|--0----0--0--0--0----0--0--0--|--6--6--6-----6--6--6--6--6-----6--6--|------------------------------|--4--4--4--4--4--4--4--4--4--4--4--4--|--3----3--3--3--3----3--3--3--|
----------------------------------|------------------------------|----------------------------------|------------------------------|----------------------------------|------------------------------|----------------0--0--0--0--0--0--|------------------------------|--2----2--2--2--------------------|--4----4--4--4--4----4--4--4--|--3----3--3--3--3--3--3--3--3--3--|--2----2--2--2--2----2--2--2--|
----------------------------------|--------------------------------------|----------------------------------|--------------------------------------|----------------------------------|--------------------------------------|----------------------------------|--2--2--2--3--2--2--2--2--2--3--2--2--|--4----4--4--4--4--4--4--4--4--4--|--0--0--0--0--0--0--0--0--0--0--0--0--|--2----2--2--2--2--2--2--2--2--2--|--------------------------------------|
--------------------------------------|---------------------------------------------------------------------------|---------------------------------------------------------------------------|---------------------------------------2--2--2--3--2--2--2--2--2--3--2--2--|-----------2-----------------2---------0--0--0--0--0--0--0--0--0--0--0--0--|--6--6--6-----6--6--6--6--6-----6--6---------------------------------------|--4--4--4--4--4--4--4--4--4--4--4--4-
--------------------------------------|---------------------------------------------------------------------------|---------------------------------------------------------------------------|------------------------------------------------2-----------------2--------|--2--2--2--3--2--2--2--2--2--3--2--2---6--6--6-----6--6--6--6--6-----6--6--|--0--0--0--0--0--0--0--0--0--0--0--0---4--4--4--4--4--4--4--4--4--4--4--4--|-------------------------------------
--------------------------------------|---------------------------------------------------------------------------|---------------------------------------------------------------------------|---------------------------------------2--2--2--3--2--2--2--2--2--3--2--2--|-----------2-----------------2---------0--0--0--0--0--0--0--0--0--0--0--0--|--6--6--6-----6--6--6--6--6-----6--6---------------------------------------|--4--4--4--4--4--4--4--4--4--4--4--4-
--------------------------------------|------------------------------|--------------------------------------|------------------------------|--------------------------------------|------------------------------|-----------2-----------------2--------|--0----0--0--0--0----0--0--0--|--6--6--6-----6--6--6--6--6-----6--6--|------------------------------|--4--4--4--4--4--4--4--4--4--4--4--4--|--3----3--3--3--3----3--3--3--|
----------------------------------|------------------------------|----------------------------------|------------------------------|----------------------------------|------------------------------|----------------0--0--0--0--0--0--|------------------------------|--2----2--2--2--------------------|--4----4--4--4--4----4--4--4--|--3----3--3--3--3--3--3--3--3--3--|--2----2--2--2--2----2--2--2--|
----------------------------------|------------------------------|----------------------------------|------------------------------|----------------------------------|------------------------------|----------------------------------|--0----0--0--0--0----0--0--0--|--4----4--4--4--4--4--4--4--4--4--|------------------------------|--2----2--2--2--2--2--2--2--2--2--|--3----3--3--3--3----3--3--3--|
----------------------------------|------------------------------|----------------------------------|------------------------------|----------------------------------|------------------------------|----------------0--0--0--0--0--0--|------------------------------|--2----2--2--2--------------------|--4----4--4--4--4----4--4--4--|--3----3--3--3--3--3--3--3--3--3--|--2----2--2--2--2----2--2--2--|
----------------------------------|----------------------------------|----------------------------------|----------------------------------|----------------------------------|----------3-3-3-3---------3-3-3-3-|----------------------------------|----------------------------------|--4----4--4--4--4--4--4--4--4--4--|----------------------------------|--2----2--2--2--2--2--2--2--2--2--|--0-0-0-0---------0-0-0-0---------|
--------------------------------|----------------------------------|----------------2-2-2-2---------|----------------------------------|-------------0------------------|----------3-3-3-3---------3-3-3-3-|----------3-------------3-3-3-3-|----------------------------------|--------------------------------|----------------------------------|--3-3-3-3-----------------------|--0-0-0-0---------0-0-0-0---------|
--------------------------------|----------------------------------|----------------2-2-2-2---------|----------------------------------|-------------0------------------|----------3-3-3-3---------3-3-3-3-|----------3-------------3-3-3-3-|----------------------------------|--------------------------------|----------------------------------|--3-3-3-3-----------------------|--0-0-0-0---------0-0-0-0---------|
--------------------------------|----------------------------------|----------------2-2-2-2---------|----------------------------------|-------------0------------------|----------3-3-3-3---------3-3-3-3-|----------3-------------3-3-3-3-|----------------------------------|--------------------------------|----------------------------------|--3-3-3-3-----------------------|--0-0-0-0---------0-0-0-0---------|
--------------------------|------------------------------|--------------------------|--3----3--3--3--3----3--3--3--|-------------0------------|--4----4--4--4--4----4--4--4--|----------3----------4----|--4----4--4--4--4----4--4--4--|--------------------------|--2----2--2--2--2----2--2--2--|--3-3-3-3-------2---------|------------------------------|
------------------------------|------------------------------|--3----3--3--3--2----2--2--2--|--3----3--3--3--3----3--3--3--|--2----2--2--2--3----3--3--3--|--4----4--4--4--4----4--4--4--|--4----4--4--4--4----4--4--4--|--4----4--4--4--4----4--4--4--|--5----5--5--5--4----4--4--4--|--2----2--2--2--2----2--2--2--|------------------------------|------------------------------|
------------------------------|------------------------------|--3----3--3--3--2----2--2--2--|--3----3--3--3--3----3--3--3--|--2----2--2--2--3----3--3--3--|--4----4--4--4--4----4--4--4--|--4----4--4--4--4----4--4--4--|--4----4--4--4--2----2--2--2--|--5----5--5--5--4----4--4--4--|--2----2--2--2--4----4--4--4--|------------------------------|------------------------------|
----------------0----0--0--0--|--6----6--6--6--6----4----|--0----0--0--0--0----0--0--0--|--7----7--7--7--7---------|--7----7--7--7----------------|--6----6--6--6--6---------|--0----0--0--0----------------|--4----4--4--4--4---------|--7----7--7--7--7----7--7--7--|--------------------------|----------------7----7--7--7--|--------------------------|
--4-6---4----6--------|------------------------------|-------------7--------|------------------------------|----------------------|------------------------------|----------------------|--0----0--0--0--0----0--0--0--|----------------------|------------------------------|----------------------|--3----3--3--3--3----3--3--3--|
----------------------------------|------------------------------|----------------------------------|------------------------------|----------------------------------|------------------------------|----------------0--0--0--0--0--0--|------------------------------|--2----2--2--2--------------------|--4----4--4--4--4----4--4--4--|--3----3--3--3--3--3--3--3--3--3--|--2----2--2--2--2----2--2--2--|
----------------------------------|------------------------------|----------------------------------|------------------------------|----------------------------------|------------------------------|----------------------------------|--0----0--0--0--0----0--0--0--|--4----4--4--4--4--4--4--4--4--4--|------------------------------|--2----2--2--2--2--2--2--2--2--2--|--3----3--3--3--3----3--3--3--|
----------------------------------|------------------------------|----------------------------------|------------------------------|----------------------------------|------------------------------|----------------0--0--0--0--0--0--|------------------------------|--2----2--2--2--------------------|--4----4--4--4--4----4--4--4--|--3----3--3--3--3--3--3--3--3--3--|--2----2--2--2--2----2--2--2--|
----------------------------------|--------------------------------------|----------------------------------|--------------------------------------|----------------------------------|--------------------------------------|----------------------------------|--2--2--2--3--2--2--2--2--2--3--2--2--|--4----4--4--4--4--4--4--4--4--4--|--0--0--0--0--0--0--0--0--0--0--0--0--|--2----2--2--2--2--2--2--2--2--2--|--------------------------------------|
--------------------------------------|---------------------------------------------------------------------------|---------------------------------------------------------------------------|---------------------------------------2--2--2--3--2--2--2--2--2--3--2--2--|-----------2-----------------2---------0--0--0--0--0--0--0--0--0--0--0--0--|--6--6--6-----6--6--6--6--6-----6--6---------------------------------------|--4--4--4--4--4--4--4--4--4--4--4--4-
--------------------------------------|------------------------------|--------------------------------------|------------------------------|--------------------------------------|------------------------------|-----------2-----------------2--------|--0----0--0--0--0----0--0--0--|--6--6--6-----6--6--6--6--6-----6--6--|------------------------------|--4--4--4--4--4--4--4--4--4--4--4--4--|--3----3--3--3--3----3--3--3--|
------------------------------|------------------------------|------------------------------|------------------------------|------------------------------|------------------------------|----------------0----0--0--0--|------------------------------|--2----2--2--2----------------|--4----4--4--4--4----4--4--4--|--3----3--3--3--3----3--3--3--|--2----2--2--2--2----2--2--2--|
----------------------------------|------------------------------|----------------------------------|------------------------------|----------------------------------|------------------------------|----------------------------------|--0----0--0--0--0----0--0--0--|--4----4--4--4--4--4--4--4--4--4--|------------------------------|--2----2--2--2--2--2--2--2--2--2--|--3----3--3--3--3----3--3--3--|
------------------------------|------------------------------|------------------------------|------------------------------|------------------------------|------------------------------|----------------0----0--0--0--|------------------------------|--2----2--2--2----------------|--4----4--4--4--4----4--4--4--|--3----3--3--3--3----3--3--3--|--2----2--2--2--2----2--2--2--|
----------------------------------|--------------------------------------|----------------------------------|--------------------------------------|----------------------------------|--------------------------------------|----------------------------------|--2--2--2--3--2--2--2--2--2--3--2--2--|--4----4--4--4--4--4--4--4--4--4--|--0--0--0--0--0--0--0--0--0--0--0--0--|--2----2--2--2--2--2--2--2--2--2--|--------------------------------------|
--------------------------------------|---------------------------------------------------------------------------|---------------------------------------------------------------------------|---------------------------------------2--2--2--3--2--2--2--2--2--3--2--2--|-----------2-----------------2---------0--0--0--0--0--0--0--0--0--0--0--0--|--6--6--6-----6--6--6--6--6-----6--6---------------------------------------|--4--4--4--4--4--4--4--4--4--4--4--4-
--------------------------------------|---------------------------------------------------------------------------|---------------------------------------------------------------------------|------------------------------------------------2-----------------2--------|--2--2--2--3--2--2--2--2--2--3--2--2---6--6--6-----6--6--6--6--6-----6--6--|--0--0--0--0--0--0--0--0--0--0--0--0---4--4--4--4--4--4--4--4--4--4--4--4--|-------------------------------------
--------------------------------------|---------------------------------------------------------------------------|---------------------------------------------------------------------------|---------------------------------------2--2--2--3--2--2--2--2--2--3--2--2--|-----------2-----------------2---------0--0--0--0--0--0--0--0--0--0--0--0--|--6--6--6-----6--6--6--6--6-----6--6---------------------------------------|--4--4--4--4--4--4--4--4--4--4--4--4-
--------------------------------------|------------------------------|--------------------------------------|------------------------------|--------------------------------------|------------------------------|-----------2-----------------2--------|--0----0--0--0--0----0--0--0--|--6--6--6-----6--6--6--6--6-----6--6--|------------------------------|--4--4--4--4--4--4--4--4--4--4--4--4--|--3----3--3--3--3----3--3--3--|
------------------------------|------------------------------|------------------------------|------------------------------|------------------------------|------------------------------|----------------0----0--0--0--|------------------------------|--2----2--2--2----------------|--4----4--4--4--4----4--4--4--|--3----3--3--3--3----3--3--3--|--2----2--2--2--2----2--2--2--|
-------------------------------|------------------------------|-------------------------------|------------------------------|-------------------------------|------------------------------|-------------------------------|--0----0--0--0--0----0--0--0--|--4----4--4--4--4----4----4----|------------------------------|--2----2--2--2--2----2----2----|--3----3--3--3--3----3--3--3--|
------------------------------|------------------------------|------------------------------|------------------------------|------------------------------|------------------------------|----------------0----0--0--0--|------------------------------|--2----2--2--2----------------|--4----4--4--4--4----4--4--4--|--3----3--3--3--3----3--3--3--|--2----2--2--2--2----2--2--2--|
-------------------------------|----------------------------------|-------------------------------|----------------------------------|-------------------------------|------------------2-2-2-2-2-2-2-2-|-------------------------------|----------------------------------|--4----4--4--4--4----4----4----|--0-0-0-0-0-0-0-0-0-0-0-0-0-0-0-0-|--2----2--2--2--2----2----2----|--5-5-5-5-5-5-5-5-----------------|
----------------------------------|----------------------------------|----------------------------------|----------------------------------|----------------------------------|------------------2-2-2-2-2-2-2-2-|--1-1-1-1-1-1-1-1-1-1-1-1-1-1-1-1-|----------------------------------|--0-0-0-0-0-0-0-0-0-0-0-0-0-0-0-0-|--0-0-0-0-0-0-0-0-0-0-0-0-0-0-0-0-|----------------------------------|--5-5-5-5-5-5-5-5-----------------|
----------------------------------|----------------------------------|----------------------------------|------------------0-0-0-0-0-0-0-0-|----------------------------------|----------------------------------|--1-1-1-1-1-1-1-1-1-1-1-1-1-1-1-1-|----------------------------------|--0-0-0-0-0-0-0-0-0-0-0-0-0-0-0-0-|--2-2-2-2-2-2-2-2-----------------|----------------------------------|----------------------------------|
----------------------------------|----------------------------------|----------------------------------|------------------0-0-0-0-0-0-0-0-|----------------------------------|----------------------------------|--3-3-3-3-3-3-3-3-3-3-3-3-3-3-3-3-|----------------------------------|--2-2-2-2-2-2-2-2-2-2-2-2-2-2-2-2-|--2-2-2-2-2-2-2-2-----------------|----------------------------------|----------------------------------|
----------------------------------|------------------0-0-0-0---------|----------------------------------|----------------------------------|----------------------------------|----------------------------------|--3-3-3-3-3-3-3-3-3-3-3-3-3-3-3-3-|--2-2-2-2-------------------------|--2-2-2-2-2-2-2-2-2-2-2-2-2-2-2-2-|----------0-0-0-0---------0-0-0-0-|----------------------------------|----------------------------------|
------------------0-0-0-0---------|----------------------------------|----------------------------------|------------------0-0-0-0---------|----------------------------------|----------------------------------|--2-2-2-2-------------------------|----------------------------------|----------0-0-0-0---------0-0-0-0-|--2-2-2-2-0-0-0-0---------0-0-0-0-|----------------------------------|----------------------------------|
----------------------------------|----------------------------------|
Tap to rate this tab
 
# A B C D E F G H I J K L M N O P Q R S T U V W X Y Z