Enjambre – Homografobia tab

-------## Tablatura de mi versión para Homografobia de Enjambre,
por Fernando Arroyo, checa mi
cover, para mayor referencia de la tab, en youtube,
http://www.youtube.com/watch?v=8_ow61EIbSw
además, podrás bajar los backing tracks para practicar :)
Comentarios o sugerencias a fergto78@hotmail.com
http://www.facebook.com/fergto78
http://twitter.com/fergto78 -------##

Afinación Estándar

Intro

Guitarra 1 (audio lado derecho)

|-----------------------------||-----------------------------||-7---7-6---6-7---7-9---------||---9-----7-----9------7-8-9--||-----------------------------||-----------------------------|
|-----------------------------||-----------------------------||-7---7-6---6-7---7-9---------||---9-----7-----9-------------||-----------------------------||-----------------------------|
Guitarra 2 (audio lado izquierdo)
|-----------------------------||-----------------------------||-----------------------------||-9---9-8---8-7---7-6--6-7-8--||---9-----9-----9-------------||-----------------------------|
|-----------------------------||-----------------------------||-----------------------------||-9---9-8---8-7----7-6/-------||---9-----9-----9-------------||-----------------------------|
Verso Guitarra 1
|---------(dos tiempos)------------------------||----------------------------------------------||.--------------------------------------------.||.-11-11-11-11-9--9--9--9--7-7-7-7-9--9--9--9-.||--12-12-12-12-11-11-11-11-9-9-9-9-11-11-11-11-||----------------------------------------------|
Continuación Verso Guitarra 1
|-----------------------------||-----------------------------||-7---7-6---6-7---7-9---------||---9-----7-----9-------------||-----------------------------||-----------------------------|
Guitarra 2
|-----------------------------||-----------------------------||-----------------------------||-9---9-8---8-7---7-6---------||---9-----9-----9-------------||-----------------------------|
Pre coro Guitarra 1 (sin tiempos, solo los acordes)
|---------9---------||---------10--------||.--------9--------.||.-11-----11-------.| 4 tiempos|--11-----9---------||--9----------------|
Guitarra 2
|------------------------------||------------------------------||------------------------------||---------------10br-br-br-br--||------------11----------------||-9-9-9-9-12-------------------|
|------------------------------||------------------------------||------------------------------||---------------10br-br-~~~~~~~||------------11----------------||-9-9-9-9-12-------------------|
|------------------------------||------------------------------||------------------------------||---------------10br-br-br-br--||------------11----------------||-9-9-9-9-12-------------------|
|---------------------------||---------------------------||---------------------------||------------10br-br-~~~~~~~||--------11-----------------||-9--12---------------------|
Coro Guitarra 1 (sin tiempos, solo los acordes)
|----------------||------7---------||.-----7---6----.||.-9---9---7----.| 2 tiempos|--9---7---7-----||--7-------5-----|
Guitarra 2
|---------------------------------------||---------------------------------------||---------------------------------------||-9---9-11/12----12/-7---7-/11-11br-br--||---9---------11-------7----------------||---------------------------------------|
|-------------------------------------||-------------------------------------||-------------------------------------||-9---9-11/12----12/-7---7--7/--------||---9---------11-------7--------------||-------------------------------------|
Solo Guitarra 1
|---------(dos tiempos)------------------------||----------------------------------------------||.--------------------------------------------.||.-11-11-11-11-9--9--9--9--7-7-7-7-9--9--9--9-.||--12-12-12-12-11-11-11-11-9-9-9-9-11-11-11-11-||----------------------------------------------|
Guitarra 2
|----------12----12-/16-14--/12----------||-14----14----14----------------14~~~/---||----14----------------------------------||----------------------------------------||----------------------------------------||----------------------------------------|
|----12-------12-------12------------||-14----14-12----12-10----10-9br br--| nota final|------------------------------------| con gargle|------------------------------------||------------------------------------||------------------------------------|
Continuación Verso Guitarra 1
|-----------------------------||-----------------------------||-7---7-6---6-7---7-9---------||---9-----7-----9-------------||-----------------------------||-----------------------------|
Guitarra 2
|----------------------------------||----------------------------------||----------------------------------||-12----12-/14----14-/16----16-18~~||----14--------16--------17--------||----------------------------------|
Pre coro Guitarra 1
|---------9---------||---------10--------||.--------9--------.||.-11-----11-------.| 4 tiempos|--11-----9---------||--9----------------|
Guitarra 2
|------------------------------||------------------------------||------------------------------||---------------10br-br-br-br--||------------11----------------||-9-9-9-9-12-------------------|
|------------------------------||------------------------------||------------------------------||---------------10br-br-~~~~~~~||------------11----------------||-9-9-9-9-12-------------------|
|------------------------------||------------------------------||------------------------------||---------------10br-br-br-br--||------------11----------------||-9-9-9-9-12-------------------|
|---------------------------||---------------------------||---------------------------||------------10br-br-~~~~~~~||--------11-----------------||-9--12---------------------|
Coro Guitarra 1 (sin tiempos, solo los acordes)
|----------------||------7---------||------7---6-----||--9---9---7-----||--9---7---7-----||--7-------5-----|
|----------------||------7---------||------7---10----||--9---9---9-----||--9---7---8-----||--7-------------|
Guitarra 2
|---------------------------------------||---------------------------------------||---------------------------------------||-9---9-11/12----12/-7---7-/11-11br-br--||---9---------11-------7----------------||---------------------------------------|
|-----------------------------------------------||-----------------------------------------------||---------------------10b---10b-10b-10b-10b-10b-||-9---9-11/12----12/----------------------------||---9---------11--------------------------------||-----------------------------------------------|
Puente Guitarra 1
|-----------------------------||-----------------------------||-7---7-6---6-7---7-9---------||---9-----7-----9------7-8-9--||-----------------------------||-----------------------------|
|-----------------------------||-----------------------------||-7---7-6---6-7---7-9---------||---9-----7-----9-------------||-----------------------------||-----------------------------|
Guitarra 2
|-----------------------------||-----------------------------||-----------------------------||-9---9-8---8-7---7-6--6-7-8--||---9-----9-----9-------------||-----------------------------|
|-----------------------------||-----------------------------||-----------------------------||-9---9-8---8-7---7-6---------||---9-----9-----9-------------||-----------------------------|
Puente al Pre coro Guitarra 1
|---------9---------||---------10--------||.--------9--------.||.-11-----11-------.| 4 tiempos|--11-----9---------||--9----------------|
Guitarra 2
|---------------||---------------||---------------| entra al|--(11)~~~~~~~~~| 3er tiempo|---------------| y con volume|---------------| swell
Pre coro Guitarra 1
|---------9---------||---------10--------||.--------9--------.||.-11-----11-------.| 4 tiempos|--11-----9---------||--9----------------|
Guitarra 2
|------------------------------||------------------------------||------------------------------||---------------10br-br-br-br--||------------11----------------||-9-9-9-9-12-------------------|
|------------------------------||------------------------------||------------------------------||---------------10br-br-~~~~~~~||------------11----------------||-9-9-9-9-12-------------------|
|------------------------------||------------------------------||------------------------------||---------------10br-br-br-br--||------------11----------------||-9-9-9-9-12-------------------|
|---------------------------||---------------------------||---------------------------||------------10br-br-~~~~~~~||--------11-----------------||-9--12---------------------|
Coro Guitarra 1
|----------------||------7---------||.-----7---6----.||.-9---9---7----.| 2 tiempos|--9---7---7-----||--7-------5-----|
Guitarra 2
|---------------------------------------||---------------------------------------||---------------------------------------||-9---9-11/12----12/-7---7-/11-11br-br--||---9---------11-------7----------------||---------------------------------------|
|-------------------------------------||-------------------------------------||-------------------------------------||-9---9-11/12----12/-7---7--7/--------||---9---------11-------7--------------||-------------------------------------|
Outro Guitarra 1
|------------------------||------------------------||-7---7--10--7-9--2~~~~~~||---9--------------------||------------------------||------------------------|
Guitarra 2
|------------------------||------------------------||------------------------||-9---9--8----8--7~~~~~~~||---9-------9------------||------------------------|
Guitarra 3
|--------------||--------------||--------------||--------------| |--9--8--7-----||--7--6--5-----|
Please rate this tab:
x1.0