Enter Shikari - Jonny Sniper tab version 1

i hope this is write it sounds pretty good when i play it along to the cd this is my 
ever because im only 13 the format will be totaly rubbish but i hope its readable

c# tuning

intro done on synth

then

----------------------------| ----------------------------| -5--5-5--7--7-7--9--9-9-10--| -x--x-x--x--x-x--x--x-x-x---| -3--3-3--5--5-5--7--7-7-8---| ----------------------------|
-----------------------------------| -----------------------------------| -5-5-5-5-5--5-5--7--7-7--9--9-9-10-| -x-x-x-x-x--x-x--x--x-x--x--x-x-x--| -3-3-3-3-3--3-3--5--5-5--7--7-7-8--| -----------------------------------|
then the little interlude were just the keybord plays this bits tapped its easy if you use your left hand to do all the 5 and the rest with your right hand
-------------------------------------------| ------17---15------15------15---13------13-| -5-------5----5-------5-------5----5-------| ---17-----------17------17-----------17----| -------------------------------------------| -------------------------------------------|
then the pre chorusplay twice ------------------------------------------------------| -------1-1-------0-0-----0-0-------1-1--------0-0---0-| -------0-0-------0-0-----0-0-------0-0--------0-0---0-| -3-3-3-----5-5-5-----5-5-----7-7-7------5-5-5-----5---| -3-3-3-----5-5-5-----5-5-----7-7-7------5-5-5-----5---| -3-3-3-----5-5-5-----5-5-----7-7-7------5-5-5-----5---|
then the chorus its the same as the first riff ----------------------------| ----------------------------| -5--5-5--7--7-7--9--9-9-10--| -x--x-x--x--x-x--x--x-x-x---| -3--3-3--5--5-5--7--7-7-8---| ----------------------------|
-----------------------------------| -----------------------------------| -5-5-5-5-5--5-5--7--7-7--9--9-9-10-| -x-x-x-x-x--x-x--x--x-x--x--x-x-x--| -3-3-3-3-3--3-3--5--5-5--7--7-7-8--| -----------------------------------|
then the second verse same again
-------------------------------------------| ------17---15------15------15---13------13-| -5-------5----5-------5-------5----5-------| ---17-----------17------17-----------17----| -------------------------------------------| -------------------------------------------|
then the pre chorus again
play twice ------------------------------------------------------| -------1-1-------0-0-----0-0-------1-1--------0-0---0-| -------0-0-------0-0-----0-0-------0-0--------0-0---0-| -3-3-3-----5-5-5-----5-5-----7-7-7------5-5-5-----5---| -3-3-3-----5-5-5-----5-5-----7-7-7------5-5-5-----5---| -3-3-3-----5-5-5-----5-5-----7-7-7------5-5-5-----5---|
chorus play twice
----------------------------| ----------------------------| -5--5-5--7--7-7--9--9-9-10--| -x--x-x--x--x-x--x--x-x-x---| -3--3-3--5--5-5--7--7-7-8---| ----------------------------|
-----------------------------------| -----------------------------------| -5-5-5-5-5--5-5--7--7-7--9--9-9-10-| -x-x-x-x-x--x-x--x--x-x--x--x-x-x--| -3-3-3-3-3--3-3--5--5-5--7--7-7-8--| -----------------------------------|
pre chorus againplay 4 times through ----------------------------| ----------------------------| -5--5-5--7--7-7--9--9-9-10--| -x--x-x--x--x-x--x--x-x-x---| -3--3-3--5--5-5--7--7-7-8---| ----------------------------|
-----------------------------------| -----------------------------------| -5-5-5-5-5--5-5--7--7-7--9--9-9-10-| -x-x-x-x-x--x-x--x--x-x--x--x-x-x--| -3-3-3-3-3--3-3--5--5-5--7--7-7-8--| -----------------------------------|
then the outroplay 6 times -------------------------------------------------| -------------------------------------------------| -------------------------------------------------| --10----10---10-10----7----7---7----3---3--------| --10----10---10-10----7----7---7----3---3--------| --10----10---10-10----7----7---7----3---3--------|
Tap to rate this tab
 
# A B C D E F G H I J K L M N O P Q R S T U V W X Y Z