Enter Shikari - Return To Energiser tab

 This is my first tab.. its probably not even 75% right but its a starting point for the song =]

Tuning is in drop C#
. = mute

intro (it has wierd timing)

d#|--------------------------------------------------------------||A#|--------------------------------------------------------------||F#|--7-------5---------7---------7-------7-----------7-----------||C#|--7-5-0-0-5-5-0-0-0-7-5-0-0-0-7-5-0-0-7-5-0-0-0---7-0-0-0-----||G#|--5-5-0-0-7-5-0-0-0-5-5-0-0-0-5-5-0-0-5-5-0-0-0---5-0-0-0-----||C#|----5-0-0---5-0-0-0---5-0-0-0---5-0-0---5-0-0-0---5-0-0-0-----|| . . . . . . . . . . . . . . . .
Part 2 (i dunno whether to cal it a verse)
||----------------------------------------------------------------------|||----------------------------------------------------------------------|||-------7--7-------7--7--------5--5-------5--5-------10-10-------10-10-|||--5-5--8--8--5-5--8--8---3-3--5--5--3-3--5--5--8-8--10-10--8-8--10-10-|||--5-5--5--5--5-5--5--5---3-3--3--3--3-3--3--3--8-8--8--8---8-8--8--8--|||--5-5--5--5--5-5--5--5---3-3--3--3--3-3--3--3--8-8--8--8---8-8--8--8--|
|-----------------------------------------||-----------------------------------------||-----------------------------------------||-1-1--1-1--1-1--1-1----------------------| Play part 2 twice|-1-1--1-1--1-1--1-1----------------------||-1-1--1-1--1-1--1-1----------------------|
Part 3 (similar to part 2 but different timing and sequence)
|--------------------------------------------------------------||--------------------------------------------------------------||-------7-7-7-------7-7-7-------10-10-10------10-10-10---------||--5-5--8-8-8--5-5--8-8-8--7-7--10-10-10-7-7--10-10-10---------||--5-5--5-5-5--5-5--5-5-5--7-7--7--7--7--7-7--7--7--7----------||--5-5--5-5-5--5-5--5-5-5--7-7--7--7--7--7-7--7--7--7----------|
|----------------------------------------------------------------||-------------------------------"we still have.. the element etc"||------10-10-10------10-10-10------------------------------------||-8-8--10-10-10-8-8--10-10-10---1-1-1--1-1-1--1-1-1--1-1-1-------||-8-8--8--8--8--8-8--8--8--8----1-1-1--1-1-1--1-1-1--1-1-1-------||-8-8--8--8--8--8-8--8--8--8----1-1-1--1-1-1--1-1-1--1-1-1-------| . . . . . . . . . . . .
Bridge (listen to the track for timing)
|---------------------------------------------------------------||---------------------------------------------------------------||--7-7-7--7-7-7--8--8-8-8--7-7-7--8-8-8--8--7-7-7--7-7-7--------||--7-7-7--7-7-7--7--7-7-7--7-7-7--7-7-7--7--7-7-7--7-7-7--------||--5-5-5--5-5-5--5--5-5-5--5-5-5--5-5-5--5--5-5-5--5-5-5--------||--0-0-0--0-0-0--0--0-0-0--0-0-0--0-0-0--0--0-0-0--0-0-0--------|
|---------------------------------------------------------------||---------------------------------------------------------------||--8--8-8-8--7-7-7--8-8-8-8-------------------------------------||--7--7-7-7--7-7-7--7-7-7-7-------------------------------------||--5--5-5-5--5-5-5--5-5-5-5-------------------------------------||--0--0-0-0--0-0-0--0-0-0-0-------------------------------------|
Chorus
|---------------------------------------------------------------||---------------------------------------------------------------||---------------------------------------------------------------||-1-1-1-1-1-1-3-3-3-3-3-3-5-5-5-5-5-5-8-8-8-8-8-8---------------| X 3|-1-1-1-1-1-1-3-3-3-3-3-3-5-5-5-5-5-5-8-8-8-8-8-8---------------||-1-1-1-1-1-1-3-3-3-3-3-3-5-5-5-5-5-5-8-8-8-8-8-8---------------|
|---------------------------------------------------------------||---------------------------------------------------------------||---------------------------------------------------------------||-1-1-1-1-1-1-3-3-3-3-3-3-5~------------------------------------||-1-1-1-1-1-1-3-3-3-3-3-3-5~------------------------------------||-1-1-1-1-1-1-3-3-3-3-3-3-5~------------------------------------|
Synth Breakdown (only like 1% sure this is right)
|--3~----4~-----5~----1~------------------------------------||---3~----6~-----7~----1~------------------------------------||---3~----6~-----7~----2~------------------------------------| X 2|---5~----6~-----7~----3~------------------------------------||------------------------------------------------------------||------------------------------------------------------------|
Bit after synth breakdown "thats not what you want"
||----------------------------------------------------------------|||----------------------------------------------------------------|||----------------------------------------------------------------|||-5-5-5--5-5-5-5--5-5-5--5-5-5-5--0-0-0--0-0-0-0--0-0-0--0-0-0-0-|||-5-5-5--5-5-5-5--5-5-5--5-5-5-5--0-0-0--0-0-0-0--0-0-0--0-0-0-0-|||-5-5-5--5-5-5-5--5-5-5--5-5-5-5--0-0-0--0-0-0-0--0-0-0--0-0-0-0-| . . . . . . . . . . . . . . . . . . . . . . . . . . . .
|----------------------------------------------------------------|||----------------------------------------------------------------|||----------------------------------------------------------------|||-1-1-1--1-1-1-1--1-1-1--1-1-1-1--3-3-3--3-3-3-3--3-3-3--3-3-3-3-|| X2|-1-1-1--1-1-1-1--1-1-1--1-1-1-1--3-3-3--3-3-3-3--3-3-3--3-3-3-3-|||-1-1-1--1-1-1-1--1-1-1--1-1-1-1--3-3-3--3-3-3-3--3-3-3--3-3-3-3-|| . . . . . . . . . . . . . . . . . . . . . . . . . . . .
||----------------------------------------------------------------|||----------------------------------------------------------------|||----------------------------------------------------------------|||-5-5-5--5-5-5-5--5-5-5--5-5-5-5--0-0-0--0-0-0-0--0-0-0--0-0-0-0-|||-5-5-5--5-5-5-5--5-5-5--5-5-5-5--0-0-0--0-0-0-0--0-0-0--0-0-0-0-|||-5-5-5--5-5-5-5--5-5-5--5-5-5-5--0-0-0--0-0-0-0--0-0-0--0-0-0-0-|
|---------------------------------------------------------------||---------------------------------------------------------------||--8-8-8----7-7-7-----------------------------------------------||--8-8-8----8-8-8-----------------------------------------------||--6-6-6----6-6-6-----------------------------------------------||---------------------------------------------------------------|
|---------------------------------------------------------------||--"we still have, the element etc"-----------------------------||---------------------------------------------------------------||--1-1-1--1-1-1--1-1-1--1-1-1-----------------------------------||--1-1-1--1-1-1--1-1-1--1-1-1-----------------------------------||--1-1-1--1-1-1--1-1-1--1-1-1-----------------------------------| . . . . . . . . . . . .Second bridge (again.. listen to track for timing)
|---------------------------------------------------------------||---------------------------------------------------------------||--7-7-7--7-7-7--8--8-8-8--7-7-7--8-8-8--8--7-7-7--7-7-7--------||--7-7-7--7-7-7--7--7-7-7--7-7-7--7-7-7--7--7-7-7--7-7-7--------||--5-5-5--5-5-5--5--5-5-5--5-5-5--5-5-5--5--5-5-5--5-5-5--------||--0-0-0--0-0-0--0--0-0-0--0-0-0--0-0-0--0--0-0-0--0-0-0--------|
|---------------------------------------------------------------||---------------------------------------------------------------||--8--8-8-8--7-7-7--8-8-8-8-------------------------------------||--7--7-7-7--7-7-7--7-7-7-7-------------------------------------||--5--5-5-5--5-5-5--5-5-5-5-------------------------------------||--0--0-0-0--0-0-0--0-0-0-0-------------------------------------|
Second Chorus
|---------------------------------------------------------------||---------------------------------------------------------------||---------------------------------------------------------------||-1-1-1-1-1-1-3-3-3-3-3-3-5-5-5-5-5-5-8-8-8-8-8-8---------------| X 3|-1-1-1-1-1-1-3-3-3-3-3-3-5-5-5-5-5-5-8-8-8-8-8-8---------------||-1-1-1-1-1-1-3-3-3-3-3-3-5-5-5-5-5-5-8-8-8-8-8-8---------------|
|-------------------------------------------------------------||-------------------------------------------------------------||-------------------------------------------------------------||-1-1-1-1-1-1-3-3-3-3-3-3-------------------------------------||-1-1-1-1-1-1-3-3-3-3-3-3-------------------------------------||-1-1-1-1-1-1-3-3-3-3-3-3-------------------------------------|
End bit.. (i have no idea what it plays to be fair.. but what i usually do over it is..)
|------------------------------------------------------------------||------------------------------------------------------------------||-----8-----8------10------10-------12-------12-------15-17-15-----||---8-----8------10-----10-------12-------12-------15-----------15-||-6-----6------8------8-------10-------10-------13-----------------||------------------------------------------------------------------|
or something like that anyway
Tap to rate this tab
 
# A B C D E F G H I J K L M N O P Q R S T U V W X Y Z