Enthroned - Prophecies Of Pagan Fire tab

Band- Enthroned
Song- Prophecies Of Pagan Fire

sp = speed pick

(fade in first time) sp-| sp-| x5|-----------------------------||-----------------------------||---------------------5-------||---7-777-8-5-7-7-777---5-8---||-----------------------------||-----------------------------|
sp-| sp-| x2|-----------------------------||-----------------------------||-----------------------------||---------------------5-------||---7-777-8-5-7-7-777---5-8---||-----------------------------|
sp-| sp-| x2|-----------------------------||-----------------------------||---------------------5-------||---7-777-8-5-7-7-777---5-8---||-----------------------------||-----------------------------|
x3|---------------------------||---------------------------||-------------------5-------||---7---7-7---7---7---5-8---||-----5---------5-----------||---------------------------|
x1|-------------||-------------||-------------||---7---7-7---||-----5-------||-------------|
x2|---------------|---------------|---------------|---------------|Guitar 1|-------0-------|-------0-------|-------0-------|-------0-------||---5-5---5-----|---5-5---5-----|---5-5---5-----|---5-5---5-----||-----------2---|-----------2---|-----------2---|-----------2---||---------------|---------------|---------------|---------------||---------------|---------------|---------------|---------------|
|---------------|---------------|---------------|---------------|Guitar 2|---------------|---------------|---------------|---------------||---------------|---------------|---------------|---------------||---------------|---------------|---------------|---------------||---------------|---------------|---6-----------|---5-----------||---0-----------|---0-----------|---------------|---------------|
x1|---------------|-------|Guitar 1|-------0-------|-------||---5-5---5-----|---5---||-----------2---|-------||---------------|-------||---------------|-------|
|---------------|-------|Guitar 2|---------------|-------||---------------|-------||---------------|-------||---------------|-------||---0-----------|---0---|
x1|-----------------------------|-------------------------||---------0-----------0-------|-------0-----------0-----||---3---3---3---3---3---3-----|-2---2---2---2---2---2---||-----5-------5---5-------5---|---4-------4---4-------4-||-----------------------------|-------------------------||-----------------------------|-------------------------|
|---------------------------|---------------------------||---------0-----------0-----|-------0-----------0-------||---1---1---1---1---1---1---|-0---0---0---0---0---0-----||-----3-------3---3-------3-|---2-------2---2-------2---||---------------------------|---------------------------||---------------------------|---------------------------|
x1|-----------------------||---------0-------------||---1---1---1-----------||-----3-------3---------||---------------0-------||-----------------------|
x1|---------------|---------------|---------------|---------------|Guitar 1|-------0-------|-------0-------|-------0-------|-------0-------||---5-5---5-----|---5-5---5-----|---5-5---5-----|---5-5---5-----||-----------2---|-----------2---|-----------2---|-----------2---||---------------|---------------|---------------|---------------||---------------|---------------|---------------|---------------|
|---------------|---------------|---------------|---------------|Guitar 2|---------------|---------------|---------------|---------------||---------------|---------------|---------------|---------------||---------------|---------------|---------------|---------------||---------------|---------------|---7-----------|---7-----------||---5-----------|---5-----------|---------------|---------------|
x1|---------------|---------------|---------------|---------------|Guitar 1|-------0-------|-------0-------|-------0-------|-------0-------||---5-5---5-----|---5-5---5-----|---5-5---5-----|---5-5---5-----||-----------2---|-----------2---|-----------2---|-----------2---||---------------|---------------|---------------|---------------||---------------|---------------|---------------|---------------|
|---------------|---------------|---------------|---------------|Guitar 2|---------------|---------------|---------------|---------------||---------------|---------------|---------------|---------------||---------------|---------------|---------------|---------------||---6-----------|---6-----------|---------------|---------------||---------------|---------------|---5-----------|---5-----------|
x1|-----------------------------|-------------------------||---------0-----------0-------|-------0-----------0-----||---3---3---3---3---3---3-----|-2---2---2---2---2---2---||-----5-------5---5-------5---|---4-------4---4-------4-||-----------------------------|-------------------------||-----------------------------|-------------------------|
|---------------------------|---------------------------||---------0-----------0-----|-------0-----------0-------||---1---1---1---1---1---1---|-0---0---0---0---0---0-----||-----3-------3---3-------3-|---2-------2---2-------2---||---------------------------|---------------------------||---------------------------|---------------------------|
x1|-----------------------||---------0-------------||---1---1---1-----------||-----3-------3---------||---------------0-------||-----------------------|
Tap to rate this tab
 
# A B C D E F G H I J K L M N O P Q R S T U V W X Y Z