Eric Clapton - Promises tab

                                   Promises
                                 Eric Clapton


Intro: G|---------------------------------------------------------||---------------------------------------------------------||---------------------------------------------------------||---------------------------------------------------------||---------------------------------------------------------||-3--3-3-3--3-3-3--3-3-3--3-3-3--3-3-3--3-3-3--3-3-3--3-3-|
G I don't care if you never come home C I don't mind if you just G keep on rollin' away on a distant sea D G 'Cause I don't love you and you don't love me G The cause of camotion when you come to town C You give them a smile and they melt G Having love as a friend is all good and fine D G But I don't like yours and you don't like mine
|---------15-------14--15------------||-------------------------15---12/15-||-17b19------------------------------||------------------------------------||------------------------------------||------------------------------------|
|---------15-------14--15------------||-------------------------15---12/15-||-17b19------------------------------||------------------------------------||------------------------------------||------------------------------------|
G I don't care what you do when I go C I don't care how you get your delights G 'Cause I'll leave you alone and I'll just let it be D G 'Cause I don't love you and you don't love me G C Bm I got a problem, can you relate? Am G I got a woman callin love hate G C Bm Even in dought, we'll always be friends Am G How could we know that the promises end
|---------15-------14--15------------||-------------------------15---12/15-||-17b19------------------------------||------------------------------------||------------------------------------||------------------------------------|
|---------15-------14--15------------||-------------------------15---12/15-||-17b19------------------------------||------------------------------------||------------------------------------||------------------------------------|
G I try to love you for years upon years C You refuse to take for real G It's time you saw what I want you to see D G I'd still love you if you just liked me G C Bm I got a problem, can you relate? Am G I got a woman callin love hate G C Bm Even in dought, we'll always be friends Am G How could we know that the promises end
Outro:|---------15-------14--15------------||-------------------------15---12/15-||-17b19------------------------------||------------------------------------||------------------------------------||------------------------------------|
|---------15-------14--15------------||-------------------------15---12/15-||-17b19------------------------------||------------------------------------||------------------------------------||------------------------------------|
|---------15-------14--15------------||-------------------------15---12/15-||-17b19------------------------------||------------------------------------||------------------------------------||------------------------------------|
|---------15-------14--15------------||-------------------------15---12/15-||-17b19------------------------------||------------------------------------||------------------------------------||------------------------------------|
|---------15-------14--15------------||-------------------------15---12/15-||-17b19------------------------------||------------------------------------||------------------------------------||------------------------------------|
|---------15-------14--15------------||-------------------------15---12/15-||-17b19------------------------------||------------------------------------||------------------------------------||------------------------------------|(Fade Away)
Tap to rate this tab
 
# A B C D E F G H I J K L M N O P Q R S T U V W X Y Z