Eric Clapton – Run Back To Your Side tab ver. 3

----------------------------------------|----------------------------------------|---7b--2--------2------7b---2---2-------| x2-----------2h3-----3--------------------|----------------------------------------|----------------------------------------|
--8----10---------5------8b--55------7--------5-----8b----55-----|-------------5h7-----7-------------------5h7-----7---------------|-----------------------------------------------------------------|-----------------------------------------------------------------|-----------------------------------------------------------------|-----------------------------------------------------------------|
\ --------------------------------------------------- \--------------------------------------------------- |-----------5-----------------5----7----5--2-------- |-------4h7------------4h7-------------------------- |---5--------------5-------------------------------- | --------------------------------------------------- |
|-x2-------------5----------8b-----55------------------ |---5h---7---------7-------------------------------- |--------------------------------------------------- |--------------------------------------------------- |--------------------------------------------------- |--------------------------------------------------- / /
fill 1.-------------------------------------------------------------------------|---20b----17-------------------------------------------------------------|-------------19--17--19b/p--17-------------------------------------------|---------------------------------19--------17-----17---19b/p--17---------|-------------------------------------17h19----19-----------------19------|-------------------------------------------------------------------------|
-------5------8b---77----------------------------|--5h7-----7--------------------------------------|-------------------------------------------------|-------------------------------------------------|-------------------------------------------------|-------------------------------------------------|
verse. x2------------------------------------------------------------5-----8b---55----|-------------------------------------------------------5h7-----7-------------|---------------5----------------5---7---5---2--------------------------------|------4h---7----------4h----7------------------------------------------------|--5---------------5----------------------------------------------------------|-----------------------------------------------------------------------------|
fill 2.---------------------------------------------------|------5-----5--------------------------------------|--7b-----7b-----7b/p5----------5--7b/p5------------|-----------------------7--5h7------------7---------|---------------------------------------------------|---------------------------------------------------|
-------5-----8b---77---------------------------|--5h7-----7------------------------------------|-----------------------------------------------|-----------------------------------------------|-----------------------------------------------|-----------------------------------------------|
repeat verse.x2
fill3.--------------------------------------------------------------|--------------------------------------------------------------|----------------------5---5--7--7b/p5---------5---5--7b/p5----|------------5---5h6h7---7-------------7--5h7----7----------7--|------5h6h7---7-----------------------------------------------|--5h7---------------------------------------------------------|
-------5------8b---77--------------|--5h7-----7------------------------|-----------------------------------|-----------------------------------|-----------------------------------|-----------------------------------|
----------------------------------------------------5---8b---55--|------------------------------------------------5h7---7----------|-----------5-------------5----7---5---2--------------------------|-----4h7-----------4h7-------------------------------------------|--5------------5-------------------------------------------------|-----------------------------------------------------------------|
------------------------------------------------------------------------|------------------------------------------------------------------------|----------5-------------5---7---5---2-----------------------------------|-----4h7----------4h7-----------------------------------7------9b---77--|--5------------5-----------------------------------7h9-----9------------|------------------------------------------------------------------------|
solo 1 im missing some parts in the solo i will post it l8er tho ^_^ repeat verse x2
fill 4-----------------------------------------------------------------------------|--20b--17--------------------------------------------------------------------|-----------19--17---19b/p17-----------------------------------------17-------|-----------------------------19-------------------17------17h18h19------19---|----------------------------------------17h18h19------19---------------------|---------------------------------17h20---------------------------------------|
continued...--------------------------|--------------------------|--17--19---19b/p17--------|--------------------19----|--------------------------|--------------------------|
repeat versex2 solo2 im missing some parts in the solo i will post it l8er tho ^_^
-------------------------------------------------------------- |-------------------------------------------------------------- |----------5-------------5---7---5---2----------2-----5b---22-- |----4h7------------4h7--------------------2h4-----4----------- | x2-5-------------5---------------------------------------------- |-------------------------------------------------------------- |
im pretty sure this is the way to play it i learned it by ear so ...here ya go!
Please rate this tab:
x1.0