Eric Clapton - Hello Old Friend tab

                               Hello Old Friend
                                  Eric Clapton


Intro:|-/10--\8---------8------------------------------------------||---------10--\8------10\8---12\10---------------------------||-----------------------------------11---9/11---9------9-----||--------------------------------------------------12-----12-||------------------------------------------------------------||------------------------------------------------------------|
|-/10--\8---------8---------------------||---------10--\8------10\8---12\10------||-----------------------------------11--||---------------------------------------||---------------------------------------||---------------------------------------|
G C G As I was strolling down the garden park
|-15\12------------------||--------12----10/12-----||---------------------12-||------------------------||------------------------||------------------------|
G C G I saw a flower glowing in the dark
|---------------------------------------------||---------------------------------------------||-9h12p9--------------------------------------||---------9h12p9------------------------------||-----------------10h12p10-/14----14-12-10----||------------------------------------------12-|
G C G It looked so pretty and it was unique G C G I had to bend down just to have a peek
|--------12\10-----||--------12\10--12-||---------------12-||-12-14------------||------------------||------------------|
Bm Am Hello old friend (hello old friend) c D G It's really good to see you once again Bm Am Hello old friend (hello old friend) c D G It's really good to see you once again
|-/10--\8---------8---------------------||---------10--\8------10\8---12\10------||-----------------------------------11--||---------------------------------------||---------------------------------------||---------------------------------------|
|-/10--\8---------8---------------------||---------10--\8------10\8---12\10------||-----------------------------------11--||---------------------------------------||---------------------------------------||---------------------------------------|
G C G Saw you walking underneath the stars G C G Couldn't stop 'cause I was in a car
|-12\10--------------||---------10/12------||-----------------12-||--------------------||--------------------||--------------------|
G C G I'm sure the distance wouldn't be too far G C G If I got out and walked to where you are
|-17----15-------------||----17----15-17\15----||-------------------16-||----------------------||----------------------||----------------------|
Bm Am Hello old friend (hello old friend) c D G It's really good to see you once again Bm Am Hello old friend (hello old friend) c D G It's really good to see you once again
|-/10--\8---------8---------------------||---------10--\8------10\8---12\10------||-----------------------------------11--||---------------------------------------||---------------------------------------||---------------------------------------|
|-/10--\8---------8---------------------||---------10--\8------10\8---12\10------||-----------------------------------11--||---------------------------------------||---------------------------------------||---------------------------------------|
Organ Solo guitar work:|-17-----------------15\-------------------------------||-----17/19----15\12----------12\10---------10---------||------------------------------------9/11------11p9----||---------------------------------------------------12-||------------------------------------------------------||------------------------------------------------------|
G C G An old man passed me on the street today
|------------------||-10/12------------||--------12----9\7-||------------------||------------------||------------------|
G C G I thought I knew him but I couldn't say
|-12\10-------||---------/12-||-------------||-------------||-------------||-------------|
G C G I stopped to think if I could place his frame
|-15\12--------------------||--------12------10/12-----||-----------------------12-||--------------------------||--------------------------||--------------------------|
G C G When he tipped his hat I knew his name
|-12\10-------||-12\10----12-||----------12-||-------------||-------------||-------------|
Bm Am Hello old friend (hello old friend) c D G It's really good to see you once again Bm Am Hello old friend (hello old friend) c D G It's really good to see you once again
|-/10--\8---------8---------------------||---------10--\8------10\8---12\10------||-----------------------------------11--||---------------------------------------||---------------------------------------||---------------------------------------|
|-/10--\8---------8---------------------||---------10--\8------10\8---12\10------||-----------------------------------11--||---------------------------------------||---------------------------------------||---------------------------------------|
Organ Solo guitar work:|-15\12------------------------------------||--------10--------------------------------||-----------9-11----9--------------12---11-||----------------12---9-12------9----------||--------------------------12--------------||------------------------------------------|
Bm Am Hello old friend (hello old friend) c D G It's really good to see you once again Bm Am Hello old friend (hello old friend) c D G It's really good to see you once again
|-/10--\8---------8---------------------||---------10--\8------10\8---12\10------||-----------------------------------11--||---------------------------------------||---------------------------------------||---------------------------------------|
|-/10--\8---------15\12-----------------|-15\12---15\12--17\15------------------||---------10--\8--------12---12\10------|----------------------/17-17-15--------||-----------------------------------11--|---------------------------------------||---------------------------------------|---------------------------------14/16-||---------------------------------------|---------------------------------------||---------------------------------------|---------------------------------------|
|-17----15----12----------------||----17----15----12-15----12----||----------------------14----12-||-------------------------------||-------------------------------||-------------------------------|
Outro:|-12------------------------||----12-15----12------------||----------14----12-14---12-||------------------------12-||---------------------------||---------------------------|
Tap to rate this tab
 
# A B C D E F G H I J K L M N O P Q R S T U V W X Y Z