Eric Johnson – Gem tab

Song: GEM
Eric Johnson
Up Close

Standard tuning

templek@me.com

I didnt take a crack at the opening 4 measures. I think I read online that it has
17 guitars layered up, so will leave that to Hal Leonard et al.

Drop a note anytime with any suggested corrections.
Thanks,
KT

0:13-----|--------------------------14----|------------|-----|------10------------10-14----12-|------------|-----|-----------------11-------------|------------|-----|--/11---------------------------|------------|-----|9-------------12----------------|------------|-----|-----------10-------------------|------------|
^2--------------7-----------------------|------------|---------9/10-----------10-12----12-10|------------|----------------------7---------------|------------|-------9------------------------------|------------|-----7--------------9-----------------|------------|------------------7-------------------|------------|
--------------------------------12----|------------|------------10------------10-14----12-|------------|-----------------------11-------------|------------|--------/11---------------------------|------------|------9-------------12----------------|------------|-----------------10-------------------|------------|
^2--------------7-----------------------|------------|---------9/10-----------10-12----12-10|------------|----------------------7---------------|------------|-------9------------------------------|------------|-----7--------------9-----------------|------------|------------------7-------------------|------------|
bridge 1 0:29 ^1-----------12--------|-----------------------------|---10-9-10----------9|10-9---9---------------------|---------------------|----------9------------------|------------------9--|-------------9---------------|----------------7----|-----------------------------|---------------------|-----------------------------|
^2-------|---------------|---14h15p14------------------|-------|---------------|14-----------17----/14\12-10-|-------|----9--11---/14|------------------9----------|----7h9|/11------------|-----------------------------|-------|---------------|-----------------------------|-------|---------------|-----------------------------|
verse 2 0:42‘|----------------------------12--------------------|‘|-----------10-----------/14----14-----------------|‘|---------------------7----------------------------|‘|-----12h11----------------------------------------|‘|0-----------------9-------------------------------|‘|----------------7---------------------------------|
--|-----------------------------------------------|--|-------10/12-14-------17--14-------------------|--|----------------14P13--------14\13-13-13-------|--|----11-----------------------------------14-16-|--|--9--------------------------------------------|--|-----------------------------------------------|
-----------------------------12-14-----------------|------------10-----------/14-----------------------|----------------------7----------------------------|------12h11----------------------------------------|-0-----------------9-------------------------------|-----------------7---------------------------------|
0:48 ^1---|-12-14------------------------------------------|---|-------14-------------------17-14------------14-|---|----------14\13-------------------14-13-14-16---|---|----------------16---14-16----------------------|---|------------------------------------------------|---|------------------------------------------------|
Fill 1 0:53 ^2--|-16---16-17----------14----------|--------------|--|---------------17-------17----17-|14-12---------|--|------------18-------------16----|---------14---|--|---------------------------------|------16------|--|---------------------------------|--------------|--|---------------------------------|--------------|
Fill 1 cont’d ^1-------------------------|-------------------------|--13---------------------|-----14---------9h10p9---|--------14---12--------12|-------------------------|
___________________________________________________Fill 2 (2nd run through at 2:04)--|-16---16-17----------14---------------|----------------|--|---------------17-------17-14---------|----------------|--|------------18----------------16-14---|------14-16-18--|--|------------------------------------16|14-16-----------|--|--------------------------------------|----------------|--|--------------------------------------|----------------|
--------17-19-21-17----19-16---------------------------|-17-19--------------19-------17----17------------------|--------------------------------16----16----16---------|-----------------------------------------18----18------|--------------------------------------------------19-14|-------------------------------------------------------|
-----------------------------12-14---12|14--------------|------------10-----------/14-----------|---14-----------|----------------------7----------------|------14-13-12--|------12h11----------------------------|----------------|----0--------------9-------------------|----------------|-----------------7---------------------|----------------|
2:12--5--7--|--3--5--|--x--x--|--x--x--|--5--7--|--------|end Fill 2___________________________________________________
0:58-----------------------------12-14---12|14-----------|------------10-----------/14-----------|---14--------|----------------------7----------------|------14-----|------12h11----------------------------|-------------|----0--------------9-------------------|-------------|-----------------7---------------------|-------------|
^2 Bridge 2----------------12-9------------|--------12--------|---------------------12-10-12\10|10-9h10-----------|---13-11---9-11-----------------|------------------|--------------------------------|--------------9---|--------------------------------|------------7-----|--------------------------------|------------------|
1:09----|-------------------------------|--------------|---9|10---9-------------9h10p9------|--------------|----|--------9-----------------11---|--------------|----|----------9-----11-------------|--------------|----|-------------------------------|--------------|----|-------------------------------|--------------|
verse 3,harmonics (hit harmonic halfway up with picking hand)----------------------------14-----|---------------|--------10--------------14-----12--|---------------|--------------------11-------------|---------------|-----11----------------------------|---------------|---9-------------12----------------|---------------|--------------10-------------------|---------------|
^2 1:16-------------------------------|-------------------|---------9----------10--12-----|-------------------|-----------------7-------------|-------------------|------9------------------------|-------------------|----7----------9------------7--|-------------------|-------------7-----------------|-------------------|
----------------------------14-----|---------------|--------10--------------14-----12--|---------------|--------------------11-------------|---------------|-----11----------------------------|---------------|---9-------------12----------------|---------------|--------------10-------------------|---------------|
---------------------------------------------------|--------9------------------------------------------|----------------------------------------11-13-14---|-----9-------------------------11-13-14------------|---7----------11h12p11-9-11-14---------------------|------------9--------------------------------------|
1:23--------12-14--|16---16h17p16p14-16----14----------|--12-14--------|--------------------17-------------|---------------|-----------------------------------|---------------|-----------------------------------|---------------|-----------------------------------|---------------|-----------------------------------|
---14---------------|------------14-17-16-14-------|------17-14---------|------14-17-------------17----|------------16-14---|14-16-------------------------|------------------16|------------------------------|--------------------|------------------------------|--------------------|------------------------------|
---16-14----16-14----------------------------------|---------17-------15-14-12-------------------------|---------------------------14-13-11----------------|------------------------------------14-11-9--------|--------------------------------------------12-----|---------------------------------------------------|
1:31-|-------------------------12-----------------7----|-|-------10----------10-14----12---------9/10------|-|----------------11-------------------------------|-|----11-------------------------------9-----------|-|-9-----------12--------------------7-------------|-|----------10-------------------------------------|
Bridge 3 1:34 ^2 ^1-|-----------------|---------12--------|-----------|-|---------10-12---|-10-9-10----------9|/10-9------|-|-------7---------|-------------------|-------9---|-|-----------------|----------------9--|---------9-|-|-----9-----------|--------------7----|-----------|-|---7-------------|-------------------|-----------|
1:47-----------|-------------|---14h15p14--12----------|-----------|-------------|14-----------------------|-----------|-------11--14|-------------------------|------7-9-7|11-/14-------|-------------------------|-----------|-------------|-------------------------|-----------|-------------|-------------------------|
repeat verse 2 w/ fill 2
bridge w/ semi clean guitar 2:19-|----------------------------|-------7------------|-|----------------------------|--------------------|-|----------------------------|-6-7-6-9------------|-|------------6-7--------7-9--|-------9------------|-|------5-7-9--------7-9-----9|--------------------|-|--5-7-----------------------|-------7------------|
^2---------------|---------------------|----------7----------|---------------|12-------------------|----------5----------|-----------9-11|-----9-11----9-------|---------------------|------9-11-----|----------11---9-11-9|------11-------------|----9----------|---------------------|12--------7--12-11-9-|---------------|---------------------|---12----------------|
--|----------------------------|------7------------|--|----------------------------|-------------------|--|----------------------------|6-7-6-9------------|--|-----------6-7--------7-9---|------9------------|--|-----5-7-9--------7-9-----9-|-------------------|--|-5-7------------------------|------7------------|
--|-----------------|---------0--------------------|--|-10---12---9--10-|--10-----x--------------------|--|-7----9----x--x--|--7------9--------------------|--|-0----x----9--11-|--0------9--------------------|--|------12---7--9--|--0------7--------------------|--|-----------------|---------0--------------------|
2:39--|------------------------------|--|-10---10---10---9-------------|--|-x----7----9----x-----rpt 3---|--|-11---0----7----9-------------|--|-9---------0----7-------------|--|------------------------------|
----------------------------------------------------|------------------------------10----12p10-/14-12-10-|----------------------9----11----11-----------------|--/11\9-7---9-7--11-9---11--------------------------|----------9-----------------------------------------|----------------------------------------------------|
Repeat Verse 2
Please rate this tab:
x1.0