Escape The Fate - The Flood tab

Ok i notice there werent alot of tabs for this song
so i thought i could help out. I learned this song by ear.
The tuning is drop C. Everything is right except for the beginning sqeal.
Its pretty simple and youll have alot of fun playing.
So here you go.


intro------------------------------------------------------|------------------------------------------------------|------------------------------------------------------|-\\\\\\\\\\--5-5-5-5-------------------2x-------------|-\\\\\\\\\\\-5-5-5-5-------------7--------------------|-------------5-5-5-5----7-7-7-10---10-----------------|
------------------------------------------------------|------------------------------------------------------|-----------------------------------4-4-4-4------------|-3-3-5-5-5-5~---------------2x-----4-4-4-4--5-5-5-5-5-|-3-3-3-3-3--------------7----------2-2-2-2--5-5-5-5-5-|-3-3-3-3-3-----7-7-7-10---10----------------5-5-5-5-5-|
verse------------------------------------------------------|-------------------------------------------9-9-9-9----|----------------------------------4-4-4-4--x-x-x-x----|-7-7777777--3-3333333--0-0000000--4-4-4-4--6-6-6-6----| 2x-7-7777777--3-3333333--0-0000000--2-2-2-2-------------|-7-7777777--3-3333333--0-0000000----------------------| ******* ******* *******
------------------------|------------------------|------------------------|-0-0000000--3-3333333---|-0-0000000--3-3333333---|-0-0000000--3-3333333---| ******* *******
chorus-------------------------------------------------------|-------------------------------------------------------|--------------5----------------------------------------|-7------------5--16x------3-----------2------------5---|-7--16x-------3-----------3--16x------2--8x--------5---|8x-7------------------------3-----------2------------5---|
------------------------------------------------------|------------------------------------------------------|--------------5---------------------------------------|-7------------5--16x------3-----------2------------5--|-7--16x-------3-----------3--16x------2--8x--------5--|-7------------------------3-----------2------------5--|
------------------------------------------------------|------------------------------------------------------|------------------------------------------------------|----------------2x--3-3-5-5-5-5~----------------2x----|----------7---------3-3-3-3-3-------------7-----------|-7-7-7-10---10------3-3-3-3-3----7-7-7-10---10--------|
------------------------|------------------------|-4-4-4-4----------------|-4-4-4-4----5-5-5-5-5---|-2-2-2-2----5-5-5-5-5---|------------5-5-5-5-5---|
verse------------------------------------------------------|-------------------------------------------9-9-9-9----|----------------------------------4-4-4-4--x-x-x-x----|-7-7777777--3-3333333--0-0000000--4-4-4-4--6-6-6-6----|-7-7777777--3-3333333--0-0000000--2-2-2-2-------------|-7-7777777--3-3333333--0-0000000----------------------| ******* ******* *******
------------------------------------------------------|------------------------------------------------------|----------------------------------------4-4-4-4-------|-7-7777777-------------------0-0000000--4-4-4-4-------|-7-7777777-------------------0-0000000--2-2-2-2-------|-7-7777777--333-333-333-333--0-0000000----------------| ******* *** *** *** *** *******
-----------|-9-9-9-9---|-x-x-x-x---|-6-6-6-6---|-----------|-----------|
------------------------|------------------------|------------------------|-0-0000000--3-3333333---|-0-0000000--3-3333333---|-0-0000000--3-3333333---| ******* *******
chorus-------------------------------------------------------|-------------------------------------------------------|--------------5----------------------------------------|-7------------5--16x------3-----------2------------5---|-7--16x-------3-----------3--16x------2--8x--------5---|8x-7------------------------3-----------2------------5---|
------------------------------------------------------|------------------------------------------------------|--------------5---------------------------------------|-7------------5--16x------3-----------2------------5--|-7--16x-------3-----------3--16x------2--8x--------5--|-7------------------------3-----------2------------5--|
------------------------------------------------------|------------------------------------------------------|------------------------------------------------------|-10~--------10~--------10~-------------10-------------|------------------------------------------7-----------|----777-777----777-777----777-777--7-10---------------| *** *** *** *** *** ***
------------------------------------------------------|------------------------------------------------------|------------------------------------------------------|-10~--------10~--------10~----------7-7-7-------------|------------------------------------7-7-7-------------|----777-777----777-777---777-777----7-7-7-------------| *** *** *** *** *** ***
------------------------------------------------------|------------------------------------------------------|------------------------------------------------------|-10~--------10~--------10~-------------10-------------|------------------------------------------7-----------|----777-777----777-777----777-777--7-10---------------| *** *** *** *** *** ***
------------------------------------------------------|------------------------------------------------------|------------------------------------------------------|-10~--------10~--------10~-------------10-------------|------------------------------------------7-----------|----777-777----777-777----777-777--7-10---------------| *** *** *** *** *** ***
------------------------------------------------------|------------------------------------------------------|------------------------------------------------------|-10~--------10~--------10~-------------10-------------|------------------------------------------7-----------|----777-777----777-777----777-777--7-10---------------| *** *** *** *** *** ***
------------------------------------------------------|------------------------------------------------------|------------------------------------------------------|-10~--------10~--------10~-------------10--------10---|------------------------------------------7---------7-|----777-777----777-777----777-777--7-10------7-10-----| *** *** *** *** *** ***
------------|------------|------------|-----10-----|--------7---|-7-10-------|
----------------------------------------------------|----------------------------------------------------|--------5-5-5-5-5-5-5-5-----------------------------|-7------5-5-5-5-5-5-5-5-----3--------2---------5----|-7------3-3-3-3-3-3-3-3-----3--------2--8x-----5----|-7--------------------------3--------2---------5----|
chorus-------------------------------------------------------|-------------------------------------------------------|--------------5----------------------------------------|-7------------5--16x------3-----------2------------5---|-7--16x-------3-----------3--16x------2--8x--------5---|8x-7------------------------3-----------2------------5---|
------------------------------------------------------|------------------------------------------------------|--------------5---------------------------------------|-7------------5--16x------3-----------2------------5--|-7--16x-------3-----------3--16x------2--8x--------5--|-7------------------------3-----------2------------5--|
outro------------------------------------------------------|------------------------------------------------------|------------------------------------------------------|-10~--------10~--------10~-------------10-------------|------------------------------------------7-----------|----777-777----777-777----777-777--7-10---------------| *** *** *** *** *** ***
------------------------------------------------------|------------------------------------------------------|------------------------------------------------------|-10~--------10~--------10~-------------10--------10---|------------------------------------------7---------7-|----777-777----777-777----777-777--7-10------7-10-----| *** *** *** *** *** ***
------------|------------|------------|-----10-----|--------7---|-7-10-------|
Tap to rate this tab
 
# A B C D E F G H I J K L M N O P Q R S T U V W X Y Z