Escape The Fate – Something tab ver. 3

Song: Something
Artist: Escape the Fate
Album: This War Is Ours

This is my tab, I think it's pretty accurate but that's up to you to decide 

Intro:

e----------------------------------------------------------|B-10h11p10-10h11p10-10-11-13-13-10h11p10-10h11p10-10-13-14-| G----------------------------------------------------------|D----------------------------------------------------------|A----------------------------------------------------------|E----------------------------------------------------------|
e----------------------------------------------------------|B-10h11p10-10h11p10-10-11-13-13-10h11p10-10h11p10-10-13-14-| G----------------------------------------------------------|D----------------------------------------------------------|A----------------------------------------------------------|E----------------------------------------------------------|
in rhythm
|-------| |-------| |--11~--| |--11~--| |--9~---| |-------|
Verse:
|-------------------||------6--7---------| (x8)|----6---6---6---6--||--4-----------4----||-------------------||-------------------|
|-------------------------------------||-------------------------------------| (x2)|--6666666666666666-1010101010101010--||--4444444444444444-8888888888888888--||--4444444444444444-8888888888888888--||--4444444444444444-8888888888888888--| ................ ................
Pre-Chorus:
|---------------------------||---------------------------||---------------------------||--1-1~---4444-4444-xx-12/--||--1-1~---4444-4444-xx-12/--||--1-1~---4444-4444-xx-12/--|
Chorus:
|--------------------------------------------------------------------------||--------------------------------------------------------------------------||--66666666----------3333333333333333--------------------------------------||--66666666-33333333-3333333333333333-44444444-33333333-44444444-66666666--||--44444444-33333333-1111111111111111-44444444-33333333-44444444-66666666--||-----------33333333------------------44444444-33333333-44444444-66666666--|
|-----------------------------------------------------------||-----------------------------------------------------------||--66666666----------3333333333333333-----------------------||--66666666-33333333-3333333333333333-44444444-33333333-6~--||--44444444-33333333-1111111111111111-44444444-33333333-6~--||-----------33333333------------------44444444-33333333-6~--|
Pre-Verse:
|-------------------||------6---7--------| (x4)|----6---6---6---6--||--4-----------4----||-------------------||-------------------|
Verse:
|-------------------------------------||-------------------------------------||-------------------------------------||--4444444444444444-8888888888888888--||--4444444444444444-8888888888888888--||--4444444444444444-8888888888888888--| ................ ................
|-------------------------------------||-------------------------------------||--6666666666666666-1010101010101010--||--4444444444444444-8888888888888888--||--4444444444444444-8888888888888888--||--4444444444444444-8888888888888888--| ................ ................
Pre-Chorus:
|---------------------------||---------------------------||---------------------------||--1-1~---4444-4444-xx-12/--||--1-1~---4444-4444-xx-12/--||--1-1~---4444-4444-xx-12/--|
Chorus:
|--------------------------------------------------------------------------||--------------------------------------------------------------------------||--66666666----------3333333333333333--------------------------------------||--66666666-33333333-3333333333333333-44444444-33333333-44444444-66666666--||--44444444-33333333-1111111111111111-44444444-33333333-44444444-66666666--||-----------33333333------------------44444444-33333333-44444444-66666666--|
|---------------------------------------------------------------||---------------------------------------------------------------||--66666666----------3333333333333333---------------------------||--66666666-33333333-3333333333333333-44444444-33333333-6~---6--||--44444444-33333333-1111111111111111-44444444-33333333-6~---6--||-----------33333333------------------44444444-33333333-6~---6--|
Bridge:
|---------------------------------------------------------------------||---------------------------------------------------------------------||---------------------------------------------------------------------||--8-8-8-8-8-8-8-8--6-6-6-6-6-6-6-6--3-3-3-3-3-3-3-3------4~------6~--||--8-8-8-8-8-8-8-8--6-6-6-6-6-6-6-6--3-3-3-3-3-3-3-3--44444~--66666~--||--8-8-8-8-8-8-8-8--6-6-6-6-6-6-6-6--3-3-3-3-3-3-3-3--44444~--66666~--| .... ....
|-----------------------------------------------------------------||-----------------------------------------------------------------||-----------------------------------------------------------------||--8-8-8-8-8-8-8-8--6-6-6-6-6-6-6-6--3-3-3-3-3-3-3-3------4~--6~--||--8-8-8-8-8-8-8-8--6-6-6-6-6-6-6-6--3-3-3-3-3-3-3-3--44444~--6~--||--8-8-8-8-8-8-8-8--6-6-6-6-6-6-6-6--3-3-3-3-3-3-3-3--44444~--6~--| ....
Solo: (not the exact solo but I tried my best)
|------------8h12p8----------------8h12p8---------||----------10------10------------10------10-------||---------9----------9----------9----------9------||-------10------------10------10------------10----||-----12----------------12--12----------------12--||-------------------------------------------------|
|--------------9h13p9------------------9h13p9----------||------------11------11--------------11------11--------||----------10----------10----------10----------10------||--------11--------------11------11--------------11----||------13------------------13--13------------------13--||------------------------------------------------------|
|--------------11h15p11------------------11h15p11----------||------------13--------13--------------13--------13--------||----------12------------12----------12------------12------||--------13----------------13------13----------------13----||------15--------------------15--15--------------------15--||----------------------------------------------------------|
|----------------------||--------14/16-14-13~--||--13-11---------------||----------------------||----------------------||----------------------|
|---------------------------------------------------------------------||--------------13----13-14-16-------14------------11-13------10-11----||-----10-13-10----10----------14-13----13-11----11--------10----------||--11-----------------------------------------13--------11---------8--||------------------------------------------------------------------8--||------------------------------------------------------------------8--|
|--------||--------||--------||--xx8/--||--xx8/--||--xx8/--|
Last Chorus:
|--------------------------------------------------------------------------||--------------------------------------------------------------------------||--66666666----------3333333333333333--------------------------------------||--66666666-33333333-3333333333333333-44444444-33333333-44444444-66666666--||--44444444-33333333-1111111111111111-44444444-33333333-44444444-66666666--||-----------33333333------------------44444444-33333333-44444444-66666666--|
|--------------------------------------------------------||--------------------------------------------------------||--66666666----------------------------------------------||--66666666-33333333-----8~-----6~-44444444-33333333-6~--||--44444444-33333333-88888~-66666~-44444444-33333333-6~--||-----------33333333-88888~-66666~-44444444-33333333-6~--| .... ....
Outro:
|------------------------------------------------||------------------------------------------------||--10h11-10h11-10-11-13-13-10h11-10h11-10-13-15--||------------------------------------------------||------------------------------------------------||------------------------------------------------|
|---------------------------------------------------------||---------------------------------------------------------||--10h11-10h11-10-11-13-13-10h11-10h11-10-13-15-----------||------------------------------------------------8888-8888||------------------------------------------------8888-8888||------------------------------------------------8888-8888|
Like it or not here's a new tab of something by escape the fate have fun
Please rate this tab:
x1.0