Escape The Fate - The Aftermath G3 tab version 3

here is my  cover : http://www.youtube.com/watch?v=tvZ3iCJkLto
when i recorded it i hadnt figured out the chorus riff but i will redo the cover

drop c tuning

Intro

|------------------------------------------------||------------8-6-8-6---10-8-10-11-------8-6-8-10-||-7-5-7-5----------------------------------------||------------------------------------------------||------------------------------------------------||------------------------------------------------|
every 3 notes x8 and hammer ons|--------------------------------------------------------||-6-8-10----8-10-11----10-11-13----11-13-15----15tr-15b--||--------------------------------------------------------||--------------------------------------------------------||--------------------------------------------------------||--------------------------------------------------------|
Verse(x2) after the G# powerchord slide|--------------------------------------------------------||--------------------------------------------------------||--------------------------------------------------------||-0-0-0-0-0-----0-0-0-0-0-----8-8-8-8-8-----8-8-8-8-8----||-0-0-0-0-0-----0-0-0-0-0-----8-8-8-8-8-----8-8-8-8-8----| |-0-0-0-0-0-----0-0-0-0-0-----8-8-8-8-8-----8-8-8-8-8----|
Verse Part2(number of sevens is incorrect but youz can figure out the timing yourself)
------------------------------------------------------------------|------------------------------------------------------------------|---------7-------9-----------7---------9---------7-------10-------|-7-7-7-7----7-7-7----7-7-7------7-7-7---7-7-7-7---7-7-7-----------|------------------------------------------------------------------|------------------------------------------------------------------|x2
------------------------------------------------------------------|------------------------------------------------------------------|---------7-------9-----------7---------9---------7-------10-------|-8-8-8-8---8-8-8---8-8-8--------8-8-8---8-8-8-8---8-8-8-----------|------------------------------------------------------------------|------------------------------------------------------------------|x2
Bridge|------------------||------------------||------------------||--000-000-000-000-||--000-000-000-000-||--000-000-000-000-|
Pre Chourus
|------------------------------------------------------------------||------------------------------------------------------------------||--------------10-10-10-10-9-9-9----------------10-10-10-10-9-9-9--||-888-888-8-8--x--x--x--x--x-x-x---888-888-8-8--x--x--x--x--x-x-x--||-888-888-8-8--8--8--8--8-/7-7-7---888-888-8-8--8--8--8--8-/7-7-7--||-888-888-8-8----------------------888-888-8-8---------------------|
... ... ... ... . . (bending)|--------------------------------------------------||--------------------------------------------------||---------------15-15-15-15-15---------------------||-000-000-0-0---x--x--x--x--x----0002223335555555--||-000-000-0-0---13-13-13-13-13---0002223335555555--||-000-000-0-0--------------------0002223335555555--| ... ... . . ................
Chorus(x2)|-------------------------------------------------||-------------------------------------------------||-3------5------7------------1010101010111111-----||-3------5------7------7-----x-x-x-x-x-x-x-x------||-1(x16)-3(x16)-5(x16)-7-----8-8-8-8-8-9-9-9------||----------------------7(x8)----------------------|
Chorus guitar 2 (played on second time chorus)
|---------------------------------------------------------------||---------------------------------------------------------------||------------------14p10--14p10--14p10----------12-14-15-14-----||-----------------------12-----12-----12---14-15------------15--||---------------------------------------------------------------||---------------------------------------------------------------|
|------------------------------------------------------------------------||------------------------------------------------------------------------||--------------12p9---12p9---12p9------------10-12-14-12-----------------||-------------------10-----10------10---12-14-----------14---------------||------------------------------------------------------------------------||------------------------------------------------------------------------|
|------------------------------------------------------------------------||------------------------------------------------------------------------||-----9p7---9p7---10p7---10p7-----7---9---12p9--12p9----15~--14~---------||---------7-----7-----7------7------7---------10----10-------------------||------------------------------------------------------------------------||------------------------------------------------------------------------|
[Verse] [Verse Part 2] [Bridge] [Pre Chorus] [Chorus] second Chorus ending
|---------------------------------------||---------------------------------------||---------------------------------------||--3333333333333333---88-88-88-88887777-||--3333333333333333---88-88-88-88887777-||--3333333333333333---88-88-88-88887777-|
Pre solo(bend at the end)|-------------------------------||-------------------------------||-------------------------------||-------------------------------||--5555555555555555555555555555-||-------------------------------|x2 ............................
|-------------------------------||-------------------------------||-------------------------------||-------------------------------||--5555555577777777888888777777-||-------------------------------| ...........................
|-----------------------------------------------||-----------------------------------------------||-----------------------------------------------||-----------------------------------------------||--555555557777777788888810101010101010----10b~-||-----------------------------------------------| ...................................
Solo[yaaaay:)]not sure about this part|--------------------------------------------------------------------||--------------------------------------------------------------------||-7p5h7-10p9p7--------------------------------10h12~-----------------||--------------10p8p7-----------------8h10h12------------------------||----------------------10p8p7-8h10h12--------------------------------||--------------------------------------------------------------------|
|------------------------------------------------------------------------||-10-10-7-999999--12-12-9-10101010--14-14-10-12121212-15-15-12-14141414--||------------------------------------------------------------------------||------------------------------------------------------------------------||------------------------------------------------------------------------||------------------------------------------------------------------------|
|13p10------13s15p12--------15s17p13--------1313131313131212121212121212---||-----11--11--------13---13---------15---14--------------------------------||-------10------------12--------------14-----------------------------------||--------------------------------------------------------------------------||--------------------------------------------------------------------------||--------------------------------------------------------------------------|
|------------------------------------------------------------------------||-13p11p10---------13p11p10--------13p11p10------------10b-10~-----------||----------12p10p9----------12p10p9----------12p10p9---------------------||------------------------------------------------------------------------||------------------------------------------------------------------------||------------------------------------------------------------------------|
|13p10-13p10-------------13p10-13p10-------------13p10-13p10----------------||------------13p10-13p10-------------13p10-13p10------------13p10-13p10-13b-||---------------------------------------------------------------------------||---------------------------------------------------------------------------||---------------------------------------------------------------------------||---------------------------------------------------------------------------|
|--------------------------------------------------------||----------15h17h18-20b--18h20p18-17h18p17s15-17b--------||-14h15h17-----------------------------------------------||--------------------------------------------------------||--------------------------------------------------------||--------------------------------------------------------|
|-------------------------------------------------------------------------||-17h18p17p15-------------------------------------------------------------||-------------17p15p14----14h15p14----------------------------------------||----------------------17----------17p15p14---14h15p14--------------------||-------------------------------------------17---------17p15p14-13~-------||-------------------------------------------------------------------------|
dont know how often|-------------------------------------------------------------------||-------------------------------------------------------------------||-7p3t7p3t7p3---9p5t9p5t9p5---10p7t10p7t10p---12p9t12p9t12p9--------||-------------------------------------------------------------------||-------------------------------------------------------------------||-------------------------------------------------------------------|
|-----------------------------------------||-----------------------------------------||---5-7-9---7-9-10---9-10-12---10-12-14---||-----------------------------------------||-----------------------------------------||-----------------------------------------|
again not sure|----------------------------------5-7-8-5-7-8-5-7-8----||----------------------------5-7-8----------------------||-------------------- 5-7-8-----------------------------||---------------5-7-8-----------------------------------||--------5-7-8------------------------------------------||-5-7-8-------------------------------------------------| . . . . . . . . . . . . . . . . . . . . .
|-1717171717171717--15151515151515----1212121213131312~------------------||------------------------------------------------------------------------||------------------------------------------------------------------------||------------------------------------------------------------------------||------------------------------------------------------------------------||------------------------------------------------------------------------|
|-17p13----------13-18p13-----------20p15------------------------------||-------15----15----------15----15---------17----------------17--------||----------14----------------14---------------17-------- -17---17------||------------------------------------------------17----17--------17----||---------------------------------------------------17-----------------||----------------------------------------------------------------------|
|-17p13----------13-18p13----------13-20p15----------15-20~---||-------15----15----------15----15----------17----17----------||----------14----------------14----------------17-------------||-------------------------------------------------------------||-------------------------------------------------------------||-------------------------------------------------------------|
|----------12-13p12----------------12-13p12----||-------11----------11----------11---------11--||----10----------------10----10--------------10||-12-----------------------12------------------||----------------------------------------------||----------------------------------------------|
--------------------------10----12----13-||-------------------11-------11----11----||--9---9-10----10------10----------------||8---8------12----12---------------------||----------------------------------------||----------------------------------------|
|-17p13-------13p12-------13p12-------12-12-13-15------17p13-------13p12----||-------15----------15----------15---------------------------15---------15--||----------14----------14----------14---------------------------14--------14||---------------------------------------------------------------------------||---------------------------------------------------------------------------||---------------------------------------------------------------------------|
13p12-------1212-13-15--|------15----------------|---------14-------------|------------------------|------------------------|
|-17-17-17-13-13-13-15-15-15-12-12-12--13-12-10--||------------------------------------------------||------------------------------------------------||------------------------------------------------||------------------------------------------------||------------------------------------------------|x2
|-10-10-10-12-12-12-13-13-13-17-17-17-20-20-20-20-20b---||-------------------------------------------------------||-------------------------------------------------------||-------------------------------------------------------||-------------------------------------------------------||-------------------------------------------------------|
whoaaa finished
pianofirst pick the 15 then bend|--15~-b------------------------------------------------||--------17~-18~----------------------------------------||-------------------------------------------------------||-------------------------------------------------------||-------------------------------------------------------|
!KEY CHANGE!
|-------------------------------------------------||-------------------------------------------------||-3------5------7------------1010101010111111-----||-3------5------7------7-----x-x-x-x-x-x-x-x------||-1(x16)-3(x16)-5(x16)-7-----8-8-8-8-8-9-9-9------||----------------------7(x8)----------------------|<---this
|----------------------------------------------------||----------------------------------------------------||-4------6------8------------1111111111-12-12-12-----||-4------6------8------8-----x-x-x-x-x--x--x--x------||-2(x16)-5(x16)-6(x16)-8-----9-9-9-9-9--10-10-10-----||----------------------8(x8)-------------------------|<---goes to this
(everything one fret higher also the chorus guitar 2 that plays the second guitar) whohoo
Tap to rate this tab
 
# A B C D E F G H I J K L M N O P Q R S T U V W X Y Z