Escape The Fate - My Apocalypse tab version 5

SONG:    MY APOCALYPSE
ARTIST:  ESCAPE THE FATE
ALBUM:   DYING IS YOUR LATEST FASHION

This tab starts at the slow intro into the solo... some of the solo is
missing but i will try and get around to it soonish, apologies. 
The missing section is marked in the tab.

EDIT: this tab is written to be played using STANDARD tuning (NOT drop-c as i have 
read in other tabs of this song). sorry if this has confused anyone!
_____________________________________________________________________________
_____________________________________________________________________________




Solo intro (played very slowly, holding each note & sliding in between)

---------------------------------------------------------------------------|-11---10---8---11---13---10---8---11---10---8---10---11---13---15---13-----|---------------------------------------------------------------------------|---------------------------------------------------------------------------|---------------------------------------------------------------------------|---------------------------------------------------------------------------|
(Slow)---10-----------------|--------8---10---11---|----------------------| X2----------------------|----------------------|----------------------|
---11-----------------|--------8---10---11---|----------------------| X2----------------------|----------------------|----------------------|
---8------------------|-------8---10---11----|----------------------| X2----------------------|----------------------|----------------------|
---13------------------15------------------|--------12---14---15--------12---14---15---|-------------------------------------------|-------------------------------------------|-------------------------------------------|-------------------------------------------|
(Moderate)
---10-----------------|--------8---10---11---|----------------------| X 4----------------------|----------------------|----------------------|
---11-----------------|--------8---10---11---|----------------------| X 4----------------------|----------------------|----------------------|
---8------------------|-------8---10---11----|----------------------| X 4----------------------|----------------------|----------------------|
hold last note briefly (15 on top string).
---13------------------13------------------15------------------15----------|--------12---14---15--------12---14---15--------12---14---15---------------|---------------------------------------------------------------------------|---------------------------------------------------------------------------|---------------------------------------------------------------------------|---------------------------------------------------------------------------|
_____________________________________________________________________________ PART OF SOLO MISSING HERE, WILL TRY AND GET AROUND TO IT SOMEDAY... SORRY! _____________________________________________________________________________ (Fast)
--------------------------------------------------------------------------|--11------11---------10--------10---------10------------------------------|------12------12--------12--12----12--12-----12--12------12---------------| X4-----------------------------------------------------12------12-----------|--------------------------------------------------------------------------|--------------------------------------------------------------------------|
--11-p-0---10-p-0-------------------------------------------------------|-------------------11-p-0---10-p-0---11-p-0---10-p-0---8-p-0---10-p-0---|------------------------------------------------------------------------| X3------------------------------------------------------------------------|------------------------------------------------------------------------|------------------------------------------------------------------------|
--------------------------------------|--11---10---8---10---8-h-10-p-8-------|----------------------------------8---|--------------------------------------|--------------------------------------|--------------------------------------|
(Slow/Moderate - getting slower towards last 4 or 5 repeats) Hold last note of 12th repeat until it 'dies'.
---18--18----17--17------------------------|-----------------------18--18----15--15----|-------------------------------------------| X 12-------------------------------------------|-------------------------------------------|-------------------------------------------|
END SONG. Hope this tab was useful to you! Cheers, Rhys.
Tap to rate this tab
 
# A B C D E F G H I J K L M N O P Q R S T U V W X Y Z