Eternal Lord - I The Deciver tab

i know i posted one before but this is updated.

myspace.com/dylan_parker18

|--------------------||--------------------||----------13p10-----||---------------10h12||------10------------||-10h12--13----------|
|------------------------------------||---------------13p12----------------||--------------------10----1010101010| X 2|--------------------------8888888888||0~-000-00~-000------------8888888888||0~-000-00~-000------------8888888888| *** * ***
|------------------------------------------------||------------------------------------------------||77777777/10/9/10/12--77-99-99-10~10-12-12-14-14-||77777777/10/9/10/12--77-99-99-10~10-12-12-14-14-||55555555/8/7//8//10--55-77-77-8~~8--10-10-12-12-||------------------------------------------------|
|--------------------------------------||---------------13p12------------------||--------------------10----10101010107-| |--------------------------88888888885-||0~-000-00~-000------------88888888885-||0~-000-00~-000------------88888888885-| *** * ***
|-----------------------------------------------------------||-----------------------------------------------------------||------------------------------------------------10h13-10h12||----------------------------------------10h13p10-----------||-----------------------------------------------------------||0000-00-0000-0-0-0-0000-0--0000-0-00000--------------------
**** ** *** ****wrong pattern |-------------------------------||-------------------------------||1010101010-9999999999-101010-77||8888888888-7777777777-888888-55||8888888888-7777777777-888888-55||8888888888-7777777777-888888-55|
|-----------------------------------------------------------||-----------------------------------------------------------||------------------------------------------------10h13-10h12||----------------------------------------10h13p10-----------||-----------------------------------------------------------||0000-00-0000-0-0-0-0000-0--0000-0-00000-------------------- **** ** *** ****the patern is diffrent but yeeeh.
|--------------------------------------------------||----------------------15h12--15h12--15h12--15h12--||1010101010-9999999999------12-----12-----12-----12||8888888888-7777777777-----------------------------||8888888888-7777777777-----------------------------||8888888888-7777777777-----------------------------|
|--------------------------------------------------------||13p10--13p10--13p10--13p10--13p12--13p12--13p12--13p12--||-----10-----10-----10-----10-----12-----12-----12-----12||--------------------------------------------------------||--------------------------------------------------------||--------------------------------------------------------|
|----------------------------||----------------------------||14p12--14p12--14p12--14p12--| X 2|-----12-----12-----12-----12||----------------------------||----------------------------|
|--------------------------------------------------------||13p10--13p10--13p10--13p10--13p12--13p12--13p12--13p12--||-----10-----10-----10-----10-----12-----12-----12-----12||--------------------------------------------------------||--------------------------------------------------------||--------------------------------------------------------|
|----------------------------||----------------------------||14p12--14p12--14p12--14p12--| X 2|-----12-----12-----12-----12||----------------------------||----------------------------|
DUNDUNDUNDUNDUNDUNDUNDUNDUNDUNDUNDUNDUNDUNDUNDUN all palm mutez ere.
|----------------------------------------------------------||--10h13--10h13--10h13--10h13---12h13--12h13--12h13--12h13-||10-----10-----10-----10------12-----12-----12-----12------||----------------------------------------------------------||----------------------------------------------------------||----------------------------------------------------------|
|-----------------------------||--15h18--15h18--15h18--15h18-||15-----15-----15-----15------| X 2|-----------------------------||-----------------------------||-----------------------------|
|----------------------------------------------------------||--10h13--10h13--10h13--10h13---12h13--12h13--12h13--12h13-||10-----10-----10-----10------12-----12-----12-----12------||----------------------------------------------------------||----------------------------------------------------------||----------------------------------------------------------|
|-----------------------------||--15h18--15h18--15h18--15h18-||15-----15-----15-----15------| X 2|-----------------------------||-----------------------------||-----------------------------|
its same through the melodic clean part.
|----------------------------------------------------------||--------------------------------------------13p10--13p10--||----------------------10h13-10h12----------------10-----10||-------------10h13p10-------------------------------------||----------------------------------------------------------||0000-0-0000-0--------------------000-0-0000-0-------------|
|----------------------------------------------------------||-----------------------10h13-----------------15h12--15h12-||----------------------------10h12-----------------12---12-||------------------10h13-----------------------------------||-------------10h12----------------------------------------||0000-0-0000-0--------------------000-0-0000-0-------------|
|--------------------------------------------------------||13p10--13p10--13p10--13p10--13p12--13p12--13p12--13p12--||-----10-----10-----10-----10-----12-----12-----12-----12||--------------------------------------------------------||--------------------------------------------------------||--------------------------------------------------------|
|----------------------------||----------------------------||14p12--14p12--14p12--14p12--| X 2|-----12-----12-----12-----12||----------------------------||----------------------------|
|---------------------------------------------------------||13-13-13-13-13-13-13-13-13-18-18-18-18-18---15h18--15h18-||10-10-10-10-10-10-10-10-10-15-15-15-15-15-15-----15------||tremole pick up tillllllllllllllll here--|---------------||-----------------------------------------|---------------||---------------------------------------------------------|
|---------| |----||---------| |----||---------| |7h10||---5-----| x 2 |7h10||----8-7--| |7h10||7-8----8-| |7h10|
|---------------------------------------------------------||13-13-13-13-13-13-13-13-13-18-18-18-18-18---15h18--15h18-||10-10-10-10-10-10-10-10-10-15-15-15-15-15-15-----15------||tremole pick up tillllllllllllllll here--|---------------||-----------------------------------------|---------------||---------------------------------------------------------|
|---------| |----||---------| |----||---------| |7h10||---5-----| x 2 |7h10||----8-7--| |7h10||7-8----8-| |7h10|
|------------------------------------||---------------13p12----------------||--------------------10----1010101010| X 2|--------------------------8888888888||0~-000-00~-000------------8888888888||0~-000-00~-000------------8888888888| *** * ***
|------------------------------------------------||------------------------------------------------||77777777/10/9/10/12--77-99-99-10~10-12-12-14-14-||77777777/10/9/10/12--77-99-99-10~10-12-12-14-14-||55555555/8/7//8//10--55-77-77-8~~8--10-10-12-12-||------------------------------------------------|
then the end where it all goes down uses the same notez frm intro its no were neear perfect.
Tap to rate this tab
 
# A B C D E F G H I J K L M N O P Q R S T U V W X Y Z