Eternal Tears Of Sorrow – River Flows Frozen tab

------------------------------------------------|--15b-------15b-------17---17---17--17------13--|------------------------------------------------|------------------------------------------------|------------------------------------------------|------------------------------------------------|
------------------------------------------------12--13--|--12------------10b-----------------12--13--15----------|----------------------12--------14----------------------|--------------------------------------------------------|--------------------------------------------------------|--------------------------------------------------------|
--15b-------15b-------17---17---17--17------13--|------------------------------------------------|------------------------------------------------|------------------------------------------------|------------------------------------------------|------------------------------------------------|
--12------------------------------------------12--13--15--|------------------15-13-12--------12--13--15--------------|----------------------------------------------------------|----------------------------------------------------------|----------------------------------------------------------|----------------------------------------------------------|
--15b-------15b-------------------17--20--19--17--|------------------------------17------------------|--------------------------17----------------------|--------------------------------------------------|--------------------------------------------------|--------------------------------------------------|
--19b-------19--------------------19--22--20--19--|------------------------------20------------------|--------------------------21----------------------|--------------------------------------------------|--------------------------------------------------|--------------------------------------------------|
--20b-------20--------------------20--24--22--20--|------------------------------22------------------|--------------------------22----------------------|--------------------------------------------------|--------------------------------------------------|--------------------------------------------------|
--19----------22--20--19----------------------|--------------------------22------------21----|----------------------------------------------|----------------------------------------------|----------------------------------------------|----------------------------------------------|
------------------------------------|--22~-------------------------------|------------------------------------|------------------------------------|------------------------------------|------------------------------------|
Please rate this tab:
x1.0