Etown Concrete - Time 2 Shine tab

tabber:ddranthony92
band:e-town concrete
album:time2shine
song:time 2 shine
tuning:drop D i think
e-mail:slipknotskid1992@yahoo.com

palm mute: .

intro:

|---------------------||---------------------||---------------------||--------7/8888888/7--||0000000-5/6666666/5--||0000000--------------| .......
other intro:
during the second time of the into after the palm mutes |---------------------||---------------------||--------7/8888888/7--||--------7/8888888/7--||0000000--------------||0000000--------------| .......
then after a while the intro it starts to slow down:
|----------------------------||----------------------------||----------------------------||--------7------7/8888888/7--||--------5------5/6666666/5--||--0000-----00---------------|
next part:
|--------------------||--------------------||--------------------||--8/6/77------------||--6/4/55------------||----------0000-000--| .... ...
|---------------------------------------||---------------------------------------||-----------5b------------4b------------||-----------5b------------4b--4-5-------||-----------------------------2-3--5/4--||--0-2-3-0-----0-2-3-0-------------3/2--| . . . . . . . .
Listen to see how long to hold each note|------------------||------------------||------------------||--4/3-3/4/5-------||--2/1-1/2/3--5/4--||-------------3/2--|
then back to:
|--------------------||--------------------||--------------------||--8/6/77------------||--6/4/55------------||----------0000-000--| .... ...
then to:
|--------------------------------------||--------------------------------------||-----------5b-----------4b------------||-----------5b-----------4b--4-5-------||----------------------------2-3--5/4--||--0-2-3-0-----0-2-3-0------------3/2--| . . . . . . . .
|--------------||--------------||--------------||-------44-33--||-4-33--22-11--||-2-11---------|
then for the last time:
|--------------------||--------------------||--------------------||--8/6/77------------||--6/4/55------------||----------0000-000--| .... ...
andif u have a myspace please add the ETC page i made at www.myspace.com/etcrapcore Thanks
Tap to rate this tab
 
# A B C D E F G H I J K L M N O P Q R S T U V W X Y Z