Evanescence - Drowning You tab

Band- Evanescence
Song- Drowning You

All guitars tuned down 2 and 1/2 steps. All notes sound a perfect fourth lower than written.
Tips: For piano parts, try a clean tone and your neck pickup. For strings, try
distorted volume swells.


Intro and Verse Riff (Simile throughout verses)

Distorted Guitar

B ||-----------------------|-----------------------|-----------------------|F#||-----------------------|-----------------------|-----------------------|D ||-----------------------|-----------------------|-----------------------|A ||--2--2---2--2-2--------|--2--2---2--2-2--------|--2--2---2--2-2--------|E ||--2--2---2--2-2--------|--2--2---2--2-2--------|--2--2---2--2-2--------|B ||--0--0---0--0-0--------|--0--0---0--0-0--------|--0--0---0--0-0--------|
-----------------------|-----------------------|-----------------------|-----------------------|-----------------------|-----------------------|-----------------------|-----------------------|-----------------------|--2--2---2--2-2--------|--2--2---2--2-2--------|--2--2---2--2-2--------|--2--2---2--2-2--------|--2--2---2--2-2--------|--2--2---2--2-2--------|--0--0---0--0-0--------|--0--0---0--0-0--------|--0--0---0--0-0--------|
-----------------------|-----------------------|------------------|-----------------------|-----------------------|------------------|-----------------------|-----------------------|------------------|--2--2---2--2-2--------|--2--2---2--2-2--------|------------------|--2--2---2--2-2--------|--2--2---2--2-2--------|------------------|--0--0---0--0-0--------|--0--0---0--0-0--------|------------------|
Guitar 2 (Piano Arranged for Guitar)------------------13--|--------------------------|------------------------|----------------------|----------15----------13--|----12--------------13--|----------------------|----------------12--------|------------------------|------14--------------|----15--------------------|--------13--------------|----------------------|--------------------------|------------------------|----------------------|--------------------------|------------------------|
----------------------|------------------|------------------|------------------|----12----------------|------------------|------------------|------------------|----------------------|------------------|------------------|------------------|--------12------------|------------------|------------------|------------------|----------------------|------------------|------------------|------------------|----------------------|------------------|------------------|------------------|
1st and 2nd Pre-Chorus (Strings Arranged For Guitar)--0----------------|--0----------------|--0----------------|--0----------------|--0----------------|--0----------------|--5----------------|--7----------------|--2----------------|--5----------------|--7----------------|--2----------------|--3----------------|--5----------------|--0----------------|-------------------|-------------------|-------------------|
--0----------------|--0----------------|--2----------------|--2----------------|--0----------------|-------------------|
Guitar 2 - 1st and 2nd Pre-Chorus (Piano Arranged for Guitar)------------------------------------------|--------12-------12-------13-------10-----|-----12-------12-------12-------12--------|--10-------10-------10-------10-----------|------------------------------------------|------------------------------------------|
--------12------------------------------------|-----------------12-------13-------10---------|-----11-------11-------11-------11------12-11-|--12-------12-------12-------12---------------|----------------------------------------------|----------------------------------------------|
--------12--------------------------------|-----------------12-------13--------------|-----------------------------------14-----|-----14-------14-------14-------14--------|--12-------12-------12-------12-----------|------------------------------------------|
--------12--------------------------------|-----------------12-------13--------------|-----------------------------------14-----|-----14-------14-------14-------14--------|--12-------12-------12-------12-----------|------------------------------------------|
Chorus (Two Guitars Arranged For One)
Distorted Guitar--------------------------|--------------------------|--------------------------|--------------------------|-----------------5--5--5--|--------------------------|--2----2---2-2-x-5--5--5--|--5----5---5-----7--7--7--|--2----2---2-2-x-3--3--3--|--5----5---5-----5--5--5--|--0----0---0-0------------|--3----3---3-3p0-5--5--5--|
---------------------------|---------------------------|---------------------------|---------------------------|---------------5-5--5--5-0-|---------------------------|--2----2---2-2-5-5--5--5-0-|--5----5---5-5-------------|--2----2---2-2-3-3--3--3---|--5----5---5-5-5-5--5--5---|--0----0---0-0-------------|--3----3---3-3-2-2--2--2-0-|
--------------------------|--------------------------|--------------------------|--------------------------|-----------------5--5--5--|--------------------------|--2----2---2-2-x-5--5--5--|--5----5---5-----7--7--7--|--2----2---2-2-x-3--3--3--|--5----5---5-----5--5--5--|--0----0---0-0------------|--3----3---3-3p0-5--5--5--|
---------------------------|---------------------------|-----------------------|---------------------------|---------------------------|-----------------------|---------------5-5--5--5-0-|---------------------------|-----------------------|--2----2---2-2-5-5--5--5-0-|--5----5---5-5-------------|--2--2---2--2-2--------|--2----2---2-2-3-3--3--3---|--5----5---5-5-5-5--5--5-5-|--2--2---2--2-2--------|--0----0---0-0-------------|--3----3---3-3-2-2--2--2-2-|--0--0---0--0-0--------|
Bridge
Distorted Guitar--------------------------|---------------------------|--------------------------|---------------------------|--5--5--5--5--5--5--5--5--|--4--4--4--4--4--4--4------|--5--5--5--5--5--5--5--5--|--4--4--4--4--4--4--4------|--3--3--3--3--3--3--3--3--|--2--2--2--2--2--2--2--2-2-|--------------------------|-----------------------0-0-|
--------------------------|---------------------------|--------------------------|---------------------------|--------------------------|---------------------------|--2--2--2--2--2--2--2--2--|--2--2--2--2--2--2--2--2-2-|--2--2--2--2--2--2--2--2--|--2--2--2--2--2--2--2--2-2-|--0--0--0--0--0--0--0--0--|--0--0--0--0--0--0--0--0-0-|
--------------------------|-----------------------|--------------------------|-----------------------|--5--5--5--5--5--5--5--5--|--4--4--4--4--4--------|--5--5--5--5--5--5--5--5--|--4--4--4--4--4--------|--3--3--3--3--3--3--3--3--|--2--2--2--2--2--------|--------------------------|-----------------------|
Guitar Solo (Played over four bars of Chorus progression)
Distorted GUitar----------------------------------------|----------------------------------0-0-|----------------------------------------|--------------------------------------|--------------12--12--------------------|--14p12----12-------------------------|--------12-14---------14----14-14-14-14-|--------14----14p12----12-14----------|--12-14---------------------------------|--------------------14----------------|----------------------------------------|--------------------------------------|
------------------------------------|--15b-------15--15--15--15--15--15r-|------------------------------------|------------------------------------|------------------------------------|------------------------------------|
-------------------------------------------------|--15p13-12h13p12----12---------------------------|-----------------14----14-12----12----12-14---12-|-----------------------------14----14------------|-------------------------------------------------|-------------------------------------------------|
Final Pre-Chorus (Strings Arranged for Guitar)--0----------------|--0----------------|--0------------0----|--0----------------|--0----------------|--0------------0----|--5----------------|--7----------------|--2------------4----|--5----------------|--7----------------|--2------------4----|--3----------------|--5----------------|--0------------2----|-------------------|-------------------|--------------------|
--0----------------|------------------|------------------|------------------|--0----------------|------------------|------------------|------------------|--5----------------|------------------|------------------|------------------|--5----------------|------------------|------------------|------------------|--3----------------|------------------|------------------|------------------|-------------------|------------------|------------------|------------------|
Outro
Distorted GUitar|-----------------------|||-----------------------|||-----------------------|||--2--2---2--2-2--------|||--2--2---2--2-2--------|||--0--0---0--0-0--------||
Tap to rate this tab
 
# A B C D E F G H I J K L M N O P Q R S T U V W X Y Z