Evans Blue - Halo tab version 2

HALO-EVANS BLUE
DROP C# tuning
(C#-G#-C#-F#-A#-D#)

INTRO-------------------------------------------------|-------------------------------------------------|-------------------------------------------------|-------------------------------------------------|-------------------------------------------------|-3-2-0-0-8-7-0-0-7-5-0---------------------------|x3
-------------------------------------------------|-------------------------------------------------|-------------------------------------------------|-------------------x---x-------------------------|-------------------x---x-------------------------|-3-2-0-0-8-7-0-----x---x-------------------------|
MAIN RIFF-------------------------------------------------|-------------------------------------------------|-------------------------------------------------|-------------------------------------------------|-3-2-0-0-8-7-0-0-7-5-0---------------------------|-3-2-0-0-8-7-0-0-7-5-0---------------------------|x3
-------------------------------------------------|-------------------------------------------------|-------------------------------------------------|--------------------5----------------------------|-3-2-0-0-8-7-0-0----5----------------------------|-3-2-0-0-8-7-0-0----5----------------------------|
PRE VERSE-------------------------------------------------|-------------12----------------------------------|----15-15-15-----15-15-15------------------------|-13----------------------------------------------|-------------------------------------------------|-------------------------------------------------|
-------------------------------------------------|-------------------------------------------------|-------------------------------------------------|----13-13-13-13--10-9-10-------------------------|-11----------------------------------------------|-------------------------------------------------|
VERSE-------------------------------------------------|-------------------------------------------------|-------------------------------------------------|-----8--------8--------8--------8----------------|---8---8----8---8----8---8----8---8--------------|-8--------8--------8--------8--------------------|x4
PRE CHORUS-6--------6--------6----------6------------------|---4--------4--------4----------4----------------|-------------------------------------------------|-------------------------------------------------|-------------------------------------------------|-------------------------------------------------|x2
CHORUS-------------------------------------------------|-------------------------------------------------|-------------------------------------------------|-2---0---10---12---------------------------------|-2---0---10---12---------------------------------|-2---0---10---12---------------------------------|x2Strum Chords
MAIN RIFF-------------------------------------------------|-------------------------------------------------|-------------------------------------------------|-------------------------------------------------|-3-2-0-0-8-7-0-0-7-5-0---------------------------|-3-2-0-0-8-7-0-0-7-5-0---------------------------|
-------------------------------------------------|-------------------------------------------------|-------------------------------------------------|--------------------5----------------------------|-3-2-0-0-8-7-0-0----5----------------------------|-3-2-0-0-8-7-0-0----5----------------------------|
PRE VERSE-------------------------------------------------|-------------12----------------------------------|----15-15-15-----15-15-15------------------------|-13----------------------------------------------|-------------------------------------------------|-------------------------------------------------|
-------------------------------------------------|-------------------------------------------------|-------------------------------------------------|----13-13-13-13--10-9-10-------------------------|-11----------------------------------------------|-------------------------------------------------|
VERSE-------------------------------------------------|-------------------------------------------------|-------------------------------------------------|-----8--------8--------8--------8----------------|---8---8----8---8----8---8----8---8--------------|-8--------8--------8--------8--------------------|x4
PRE CHORUS-6--------6--------6----------6------------------|---4--------4--------4----------4----------------|-------------------------------------------------|-------------------------------------------------|-------------------------------------------------|-------------------------------------------------|x2
CHORUS-------------------------------------------------|-------------------------------------------------|-------------------------------------------------|-2---0---10---12---------------------------------|-2---0---10---12---------------------------------|-2---0---10---12---------------------------------|x2Strum Chords
BRIDGE---------------------------------------------------|------5------------3-------------------------------|------4------------2-------5--------7--------------|-2----2-------0----0-------5--------7--------------|-2----2-------0----0-------3--------5--------------|-2----2-------0----0-------------------------------|x2
-------------------------------------------------|-------------------------------------------------|-------------------------------------------------|-------------------------------------------------|-------------------------3-3-3-3-----------------|-2-0-0-0-5-0-0-0-2-0-0-0-------------------------|P.M......................
-------------------------------------------------|-------------------------------------------------|-------------------------------------------------|-------------------------------------------------|-------------------------------------------------|-2-0-0-0-5-0-0-0-2-0-0-0-3-3-3-3-----------------|P.M......................
-------------------------------------------------|-------------------------------------------------|-------------------------------------------------|-------------------------------------------------|-------------------------3-3-3-3-----------------|-2-0-0-0-5-0-0-0-2-0-0-0-------------------------|P.M......................
-------------------------------------------------|-------------------------------------------------|-------------------------------------------------|-------------------------------------------------|-------------------------------------------------|-2-0-0-0-5-0-0-0-2-0-0-0-------------------------|P.M.....................
SOLO (slight wah pedal use)-17p16p14-----------17p16p14---------------------|----------17p16p14-----------17p16p14------------|-------------------------------------------------|-------------------------------------------------|-------------------------------------------------|-------------------------------------------------|
-17p16p14-----------17p16p14---------------------|----------17p16p14-----------17p16p14------------|-------------------------------------------------|-------------------------------------------------|-------------------------------------------------|-------------------------------------------------|
-15p13p12-----------15p13p12---------------------|----------15p13p12-----------15p13p12------------|-------------------------------------------------|-------------------------------------------------|-------------------------------------------------|-------------------------------------------------|
-15p13p12-----------15p13p12---------------------|----------15p13p12-----------15p13p12------------|-------------------------------------------------|-------------------------------------------------|-------------------------------------------------|-------------------------------------------------|
-13p12p10-----------13p12p10---------------------|----------13p12p10-----------13p12p10------------|-------------------------------------------------|-------------------------------------------------|-------------------------------------------------|-------------------------------------------------|
-13p12p10-----------13p12p10---------------------|----------13p12p10-----------13p12p10------------|-------------------------------------------------|-------------------------------------------------|-------------------------------------------------|-------------------------------------------------|
-10p9p7-----------10p9p7-------------------------|----------10p9p7-----------10p9p7----------------|-------------------------------------------------|-------------------------------------------------|-------------------------------------------------|-------------------------------------------------|
10p9p7-----------10p9p7--------------------------|----------10p9p7-----------10p9p7----------------|-------------------------------------------------|-------------------------------------------------|-------------------------------------------------|-------------------------------------------------|
CHORUS-------------------------------------------------|-------------------------------------------------|-------------------------------------------------|-2---0---10---12---------------------------------|-2---0---10---12---------------------------------|-2---0---10---12---------------------------------|x2Strum Chords
CHORUS-------------------------------------------------|-------------------------------------------------|-------------------------------------------------|-2---0---10---12---------------------------------|-2---0---10---12---------------------------------|-2---0---10---12---------------------------------|x2*Don't Strum this time, just hit each chord at thebeginning of the measure
Outro-------------------------------------------------|-------------------------------------------------|-------------------------------------------------|-------------------------------------------------|-3-2-0-0-8-7-0-0-7-5-0---------------------------|-3-2-0-0-8-7-0-0-7-5-0---------------------------|x3
-------------------------------------------------|-------------------------------------------------|-------------------------------------------------|--------------------x----x-----------------------|-3-2-0-0-8-7-0-0----x----x-----------------------|-3-2-0-0-8-7-0-0----x----x-----------------------|
Tap to rate this tab
 
# A B C D E F G H I J K L M N O P Q R S T U V W X Y Z