Evans Blue - In A Red Dress And Alone tab

Tuning (low to high): C,G,C,F,A,D

Guitar 1: Rhythm

Guitar 2: Lead

This probably isn't perfect, and I'm fairly new to this so the timing WILL be off 
the two guitars, but I've been working on it long enough that the notes should be close.

Intro: (00:08)

Guitar 1:

--------------------------------------------------|--------------------------------------------------|14-14-------------------14-14---------------------| x2x--x----0--8-8-0-8-0----x--x----0--8-8-0-8-10-10--|12-12---0--8-8-0-8-0----12-12---0--8-8-0-8-10-10--|--------0--8-8-0-8-0------------0--8-8-0-8-10-10--|
Guitar 2:
17---------------18-----20------17---15----18-----|--------15----------------------------------------|--------------------------------------------------|--------------------------------------------------| x2--------------------------------------------------|--------------------------------------------------|
Verse 1: (00:19) Guitar 1: (00:19)
---------------|---------------|---------------| Let ring0--------------|0--------------|0--------------|
Random note ringing (probably Guitar 2, just layered, 00:19):
17-------------|---------------|---------------| Let ring---------------|---------------|---------------|
Guitar 2: (00:19)
------------------------------------------------------------------|------------------------------------------------------------------|------------------------------------------------------------------| x5---7---7h8p7-10--10-10-5-5/8-8/7----7---7-8-7-10--10-10-5-5-8-8-7-|-----5----------------------------5---5---------------------------|------------------------------------------------------------------|
Guitar 1: (00:24)
. . . .-----------------------|-----------------------|-----------------------|0-0----------0-0-------| x70-0----------0-0-------|0-0----------0-0-------|
Fourth time (Guitar 1):
. . . . (harmonics)--------------------------------|--------------------------------|--------------------------7-----|0-0----------0-0-------12----12-|0-0----------0-0----------------|0-0----------0-0----------------|
Chorus: (00:46) Guitar 1: (00:46)
--------------------------------|--------------------------------|--------------------------------|8--8-8--8--8-8--8-8-8-----------|8--8-8--8--8-8--8-8-8-----------|8--8-8--8--8-8--8-8-8-----------|
--------------------------------|--------------------------------|--------------------------------|0--0-0--0--0-0--0-0-0-----------|0--0-0--0--0-0--0-0-0-----------|0--0-0--0--0-0--0-0-0-----------|
--------------------------------|--------------------------------|--------------------------------|3--3-3--3--3-3--3-3-3-----------|3--3-3--3--3-3--3-3-3-----------|3--3-3--3--3-3--3-3-3-----------|
--------------------------------|--------------------------------|--------------------------------|7--7-7--7--8-8-8-8-7-7-7--------|7--7-7--7--8-8-8-8-7-7-7--------|7--7-7--7--8-8-8-8-7-7-7--------|
--------------------------------|--------------------------------|--------------------------------|8--8-8--8--8-8--8-8-8-----------|8--8-8--8--8-8--8-8-8-----------|8--8-8--8--8-8--8-8-8-----------|
--------------------------------|--------------------------------|--------------------------------|0--0-0--0--0-0--0-0-0-----------|0--0-0--0--0-0--0-0-0-----------|0--0-0--0--0-0--0-0-0-----------|
--------------------------------|--------------------------------|--------------------------------|5-5--5-5--5-5-5-5--5-5--5-5-----|5-5--5-5--5-5-5-5--5-5--5-5-----|5-5--5-5--5-5-5-5--5-5--5-5-----|
--------------------------------|--------------------------------|--------------------------------|3-3--3-3--3-3-8-8--8-8-8-7------|3-3--3-3--3-3-8-8--8-8-8-7------|3-3--3-3--3-3-8-8--8-8-8-7------|
Guitar 2: (00:46)
--------------------------------|15---13-------------------------|----------15---14---12---10-----|--------------------------------|--------------------------------|--------------------------------|
--------------------------------|--------------------------------|10---12---14---12---14---15-----|--------------------------------|--------------------------------|--------------------------------|
--------------------------------|15---13-------------------------|----------15---14---12---10-----|--------------------------------|--------------------------------|--------------------------------|
--------------------------------|--------------------------------|10---12---10---15---14----------|--------------------------------|--------------------------------|--------------------------------|
Verse 2: (01:07) Guitar 1: (01:07)
. . . .-----------------------|-----------------------|-----------------------|0-0----------0-0-------| x3, then play:0-0----------0-0-------|0-0----------0-0-------|
. . . .--------------------------|--------------------------|--------------------------|0-0----------0-0---x-x--x-| x1, then:0-0----------0-0---x-x--x-|0-0----------0-0---x-x--x-|
. . . .-----------------------|-----------------------|-----------------------|0-0----------0-0-------| x3, again, and finally:0-0----------0-0-------|0-0----------0-0-------|
. . . . (harmonics)--------------------------------|--------------------------------|--------------------------7-----|0-0----------0-0-------12----12-|0-0----------0-0----------------|0-0----------0-0----------------|
Guitar 2:(01:07)
------------------------------------------------------------------|------------------------------------------------------------------|------------------------------------------------------------------|---7---7h8p7-10--10-10-5-5/8-8/7----7---7-8-7-10--10-10-5-5-8-8-7-| x4-----5----------------------------5---5---------------------------|------------------------------------------------------------------|
Chorus: (01:29) Guitar 1: (01:29)
--------------------------------|--------------------------------|--------------------------------|8--8-8--8--8-8--8-8-8-----------|8--8-8--8--8-8--8-8-8-----------|8--8-8--8--8-8--8-8-8-----------|
--------------------------------|--------------------------------|--------------------------------|0--0-0--0--0-0--0-0-0-----------|0--0-0--0--0-0--0-0-0-----------|0--0-0--0--0-0--0-0-0-----------|
--------------------------------|--------------------------------|--------------------------------|3--3-3--3--3-3--3-3-3-----------|3--3-3--3--3-3--3-3-3-----------|3--3-3--3--3-3--3-3-3-----------|
--------------------------------|--------------------------------|--------------------------------|7--7-7--7--8-8-8-8-7-7-7--------|7--7-7--7--8-8-8-8-7-7-7--------|7--7-7--7--8-8-8-8-7-7-7--------|
--------------------------------|--------------------------------|--------------------------------|8--8-8--8--8-8--8-8-8-----------|8--8-8--8--8-8--8-8-8-----------|8--8-8--8--8-8--8-8-8-----------|
--------------------------------|--------------------------------|--------------------------------|0--0-0--0--0-0--0-0-0-----------|0--0-0--0--0-0--0-0-0-----------|0--0-0--0--0-0--0-0-0-----------|
--------------------------------|--------------------------------|--------------------------------|5-5--5-5--5-5-5-5--5-5--5-5-----|5-5--5-5--5-5-5-5--5-5--5-5-----|5-5--5-5--5-5-5-5--5-5--5-5-----|
--------------------------------|--------------------------------|--------------------------------|3-3--3-3--3-3-8-8--8-8-8-7------|3-3--3-3--3-3-8-8--8-8-8-7------|3-3--3-3--3-3-8-8--8-8-8-7------|
Guitar 2: (01:29)
--------------------------------|15---13-------------------------|----------15---14---12---10-----|--------------------------------|--------------------------------|--------------------------------|
--------------------------------|--------------------------------|10---12---14---12---14---15-----|--------------------------------|--------------------------------|--------------------------------|
--------------------------------|15---13-------------------------|----------15---14---12---10-----|--------------------------------|--------------------------------|--------------------------------|
--------------------------------|--------------------------------|10---12---10---15---14----------|--------------------------------|--------------------------------|--------------------------------|
Bridge: (01:50) Both guitars: (01:50)
-------------------------------|-------------------------------|-------------------------------|------------------3-3/5-5/3----| x13h5-5-x-3h5-5p3p0-3-3/5-5/3----|------------------3-3/5-5/3----|
-------------------------------|-------------------------------|5/7-7--------------------------|5/7-7-------------3-3/5-5/3----| x23/5-5-x-3h5-5p3p0-3-3/5-5/3----|------------------3-3/5-5/3----|
. . . . . .-------------------------------|-------------------------------|5/7-7--------------------------|5/7-7-------------0-0-0-0-0-0--|3/5-5-------------0-0-0-0-0-0--|------------------0-0-0-0-0-0--|
Guitar 1: (02:01)
--------------------------------------------------|--------------------------------------------------|14-14-------------------14-14---------------------| x2x--x----0--8-8-0-8-0----x--x----0--8-8-0-8-10-10--|12-12---0--8-8-0-8-0----12-12---0--8-8-0-8-10-10--|--------0--8-8-0-8-0------------0--8-8-0-8-10-10--|
Guitar 2: (02:01)
17---------------18-----20------17---15----18-----|--------15----------------------------------------|--------------------------------------------------|--------------------------------------------------| x2--------------------------------------------------|--------------------------------------------------|
Chorus: (02:12) Guitar 1: (02:12)
--------------------------------|--------------------------------|--------------------------------|8--8-8--8--8-8--8-8-8-----------|8--8-8--8--8-8--8-8-8-----------|8--8-8--8--8-8--8-8-8-----------|
--------------------------------|--------------------------------|--------------------------------|0--0-0--0--0-0--0-0-0-----------|0--0-0--0--0-0--0-0-0-----------|0--0-0--0--0-0--0-0-0-----------|
--------------------------------|--------------------------------|--------------------------------|3--3-3--3--3-3--3-3-3-----------|3--3-3--3--3-3--3-3-3-----------|3--3-3--3--3-3--3-3-3-----------|
--------------------------------|--------------------------------|--------------------------------|7--7-7--7--8-8-8-8-7-7-7--------|7--7-7--7--8-8-8-8-7-7-7--------|7--7-7--7--8-8-8-8-7-7-7--------|
--------------------------------|--------------------------------|--------------------------------|8--8-8--8--8-8--8-8-8-----------|8--8-8--8--8-8--8-8-8-----------|8--8-8--8--8-8--8-8-8-----------|
--------------------------------|--------------------------------|--------------------------------|0--0-0--0--0-0--0-0-0-----------|0--0-0--0--0-0--0-0-0-----------|0--0-0--0--0-0--0-0-0-----------|
--------------------------------|--------------------------------|--------------------------------|5-5--5-5--5-5-5-5--5-5--5-5-----|5-5--5-5--5-5-5-5--5-5--5-5-----|5-5--5-5--5-5-5-5--5-5--5-5-----|
--------------------------------|--------------------------------|--------------------------------|3-3--3-3--3-3-8-8--8-8-8-7------|3-3--3-3--3-3-8-8--8-8-8-7------|3-3--3-3--3-3-8-8--8-8-8-7------|
Guitar 2: (02:12)
--------------------------------|15---13-------------------------|----------15---14---12---10-----|--------------------------------|--------------------------------|--------------------------------|
--------------------------------|--------------------------------|10---12---14---12---14---15-----|--------------------------------|--------------------------------|--------------------------------|
--------------------------------|15---13-------------------------|----------15---14---12---10-----|--------------------------------|--------------------------------|--------------------------------|
--------------------------------|--------------------------------|10---12---10---15---14----------|--------------------------------|--------------------------------|--------------------------------|
Outro: (02:33) Both Guitars:
------------------------------|------------------------------|------------------------------|3/5-5--x-3/5-5--x-3h5p3p0-----|3/5-5--x-3/5-5--x-3h5p3p0-----|3/5-5--x-3/5-5--x-3h5p3p0-----|
------------------------------|------------------------------|------------------------------|3/5-5--x-3/5-5--x---3---5-----|3/5-5--x-3/5-5--x---3---5-----|3/5-5--x-3/5-5--x---3---5-----|
Guitar 1: (02:39)
-----------------------------------------------------------------|-----------------------------------------------------------------|-----------------------------------------------------------------|0-------------------------------------------------------x-x-x-x--|0---Let ring--------------------------------------------x-x-x-x--|0-------------------------------------------------------x-x-x-x--|
Guitar 2:(02:39)
------------------------------------------------------------------|------------------------------------------------------------------|------------------------------------------------------------------|---7---7h8p7-10--10-10-5-5/8-8/7----7---7-8-7-10--10-10-5-5-8-8-7-| x1-----5----------------------------5---5---------------------------|------------------------------------------------------------------|
Both Guitars: (02:44)
-------------------------------------|-------------------------------------|-------------------------------------|3/5-5--x-3/5-5--x-3h5p3p0------------|3/5-5--x-3/5-5--x-3h5p3p0------------|3/5-5--x-3/5-5--x-3h5p3p0------------|
-------------------------------------|-------------------------------------|-------------------------------------|0--3--5--8--5--3---------------------|0--3--5--8--5--3---------------------|0--3--5--8--5--3---------------------|
-------------------------------------|-------------------------------------|-------------------------------------|7-7--0-7h8p7--10-10-10--5-5/8-8/7----|7-7--0-7h8p7--10-10-10--5-5/8-8/7----|7-7--0-7h8p7--10-10-10--5-5/8-8/7----|
-------------------------------------|-------------------------------------|-------------------------------------|-0-7-0-7h8p7--10-10-10--5-5/8-8/7----|-0-7-0-7h8p7--10-10-10--5-5/8-8/7----|-0-7-0-7h8p7--10-10-10--5-5/8-8/7----|
-------------------------------------|-------------------------------------|-------------------------------------|7-7--0-7h8p7--10-10-10--5-5/8-8/7----|7-7--0-7h8p7--10-10-10--5-5/8-8/7----|7-7--0-7h8p7--10-10-10--5-5/8-8/7----|
. . . . . .--------------------------------------|--------------------------------------|--------------------------------------|-0-7-0-7h8p7--10-10-10--5-5-7-7-7-7-7-|-0-7-0-7h8p7--10-10-10--5-5-7-7-7-7-7-|-0-7-0-7h8p7--10-10-10--5-5-7-7-7-7-7-|
-------------------------------------|-------------------------------------|-------------------------------------|0------------------------------------|0------------------------------------|0------------------------------------|
That's it! Enjoy.
Tap to rate this tab
 
# A B C D E F G H I J K L M N O P Q R S T U V W X Y Z