Evergreen Terrace - Dogfight tab

Hello this is my first tab!
Have fun to play! :)
Dropped guitar to Cis Tuning

4x--------------------------------------------------------------|--------------------------------------------------------------|--------------------------------------------------------------|---------------------------7--------7-------------------------|-0-0-0-0-0-0-0-0-1-0--0-0x---6-5-0x---6-5---------------------|-0-0-0-0-0-0-0-0-1-0--0-0x-------0x---------------------------|
1x-----------------------------------|-----------------------------------|-8-8-8-8-8-8-----------------------|-6-6-6-6-6-6-8-8-8-8-8-8-8---------|-------------6-6-6-6-6-6-6---------|-----------------------------------|
2x | -----------------------------------------------------------------| | -----------------------------------------------------------------| | ---------------------------------------------------------0--0----| | ---------------------------------------------------------6--6----| | -0-0-0-0-0-0-0-0-0-0-0-0-0-0-0-0---------------------------------| | -0-0-0-0-0-0-0-0-0-0-0-0-0-0-0-0-0-2-5-0-3-6-0-2-5-0-3-6---------|
|
| ----------------------------------------------------------------------| | ----------------------------------------------------------------------| | ---------------------------------7-7x-7x-7-7x-7x-7-7x-----------------| | ---------------------------------6-6x-6x-6-6x-6x-6-6x-----------------| | -0-0-0-0-0-0-0-0-0-0-0-0-0-0-0-0-5-5x-5x-5-5x-5x-5-5x-6-3-----6-3-----| | -0-0-0-0-0-0-0-0-0-0-0-0-0-0-0-0--------------------------6-3-----6-3-|
1x-------------------------|-------------------------|-7-7--7-7--7-7--7-7--7---|-6-6--6-6--6-6--6-6--6---|-5-5--5-5--5-5--5-5--5---|-------------------------|
4x-------------------------|-------------------------|-7-7--7-7--7-7--7-7------|-6-6--6-6--6-6--6-6------|-5-5--5-5--5-5--5-5------|-------------------------|
2x |-----------------------------------------------------------------| |-----------------------------------------------------------------| |-----------------------------------------------------------------| |--------------------------------10101010101010101010101010101010-| |-0-0-0-0-0-0-0-0-0-0-0-0-0-0-0-0-8-8-8-8-8-8-8-8-8-8-8-8-8-8-8-8-| |-0-0-0-0-0-0-0-0-0-0-0-0-0-0-0-0-8-8-8-8-8-8-8-8-8-8-8-8-8-8-8-8-|
|
|------------------------------------------------------------------------| |------------------------------------------------------------------------| |------------------------------------------------------------------------| |10-10-10-10-10-10-10-10-10-10-10-10-10-10-10-10-------------------------| |10-10-10-10-10-10-10-10-10-10-10-10-10-10-10-10-------------------------| |10-10-10-10-10-10-10-10-10-10-10-10-10-10-10-10-0-2-5-0-3-6-0-2-5-0-3-6-|
|
|--------| |--------| |-0--0---| |-6--6---| |--------| |--------|
1x-----------------------------------------|-----------------------------------------|-----------------------------------------|-----------------------------------------|-000--000--000--000--000--000--000--000--|-000--000--000--000--000--000--000--000--|
4x------------------------------------------|------------------------------------------|------------------------------------------|------------------------------------------|-000--000--1-0---0-0-0--0-0-0-------------|-000--000--1-0---0-0-0--0-0-0-------------|
2x-----------------------------------------------------------------|-----------------------------------------------------------------|-----------------------------------------------------------------|-----------------------------------------------------------------|-----------------------------------------------------------------|-0-3-5-3-5-3-0-3-5-6-5-3-5-3-0-3-0-3-5-3-5-3-0-3-5-6-5-3-5-3-0-1-|
-----------------------------------------------------------------|----------------3-----------------------3------------------------|------------------2-1---------------------2-~1~------------------|-----------------------------------------------------------------|-0---0---0----------------0---0---0------------------------------|-0---0---0----------------0---0---0------------------------------|
--------------------------------------------------------------|--------------------3---------------------------3-------------|----------------------2-1-------------------------2-~1~-------|--------------------------------------------------------------|-0x--0x--0x--0x--------------0x--0x--0x--0x-------------------|-0x--0x--0x--0x--------------0x--0x--0x--0x-------------------|
--------------------------------------------------------------|-3-----------3-4-3-4-3-----------3-4-3-4-3~~~~----------------|----2--1--2-------------2--1--2-------------------------------|--------------------------------------------------------------|--------------------------------------------------------------|--------------------------------------------------------------|
-----------------------------------------------------------------|-----------------------------------------------------------------|-----------------------------------------------------------------|-7-7-7-7-7-7-7-7-7-7-7-7-7-7-7-7---------------------------------|-5-5-5-5-5-5-5-5-5-5-5-5-5-5-5-5-8-8-8-8-8-8-8-8-8-8-8-8-8-8-8-8-|---------------------------------8-8-8-8-8-8-8-8-8-8-8-8-8-8-8-8-|
-------------------------------------------------------------------|-------------------------------------------------------------------|---------------------------------------------------------0--0------|---------------------------------------------------------6--6------|-10101010101010101010101010101010----------------------------------|-101010101010101010101010101010100-2-5-0-3-6-0-2-5-0-3-6-----------|
Tap to rate this tab
 
# A B C D E F G H I J K L M N O P Q R S T U V W X Y Z